Kevin Drew Tabs

Tbtf

1 versions

TAB

            Great song from Spirit If, I was really surprised to find no one had tabbed it. I'm not 
sure if this is correct, but if anyone could help me out here it would be greatly 
This is basically my version of the song, a true tab would be great.

E|--------------------------|
B|--------------------------|
G|--------------------------|
D|---4----4---4---4---4---4-| - (Strum Intro)
A|-7---7----7---7---7---7---|
E|--------------------------|


E|--------------------------|
B|--------------------------|
G|--------------------------|
D|----2---2---2---2---2---2-|
A|-4---4----4---4---4---4---|
E|--------------------------|

Repeat Until Chorus
(Which is Simply)

("You are too beautiful...to fuck)
E|--------------------------|
B|-3--2---------------------|
G|-2--1---------------------|
D|-4--2---------------------| x 4
A|-0--0---------------------|
E|-2--0---------------------|

After the verses comes the instrumental, which goes.

E|-0--0---------------------|
B|-0--2---------------------|
G|-1--2---------------------|
D|-2--2---------------------|
A|-2--0---------------------|
E|-0--0---------------------|

Which is E and A I believe.

Sorry that it's not very accurate, but it's as close as I can get right now, if I figure 
out better, I'll be sure to post it, thanks!    

Added On December 16th, 2013

SHARE

Comments

blog comments powered by Disqus

ADVERTISEMENT