Kid Cudi Tabs

50 Ways To Make A Record

1 versions

TAB

            May not be completely accurate but it's very close

Standard Tuning
No capo

This part repeats through the majority of the song

e|--3--5--7--8---7--5--5--3--|--3--5--7--8---7--5--0----|
B|--5--7--8--10--8--7--7--5--|--5--7--8--10--8--7--0----|
G|--4--7--9--9---9--7--7--4--|--4--7--9--9---9--7--0----|
D|---------------------------|--------------------------|
A|---------------------------|--------------------------|
E|---------------------------|--------------------------|

This part is played when he repeats "50 ways to make a record" and leads into the 
instrumental breaks

e|--7--5--0--|
B|--8--7--0--|
G|--9--7--0--|
D|-----------|
A|-----------|
E|-----------|    

Added On December 16th, 2013

SHARE

Comments

blog comments powered by Disqus

ADVERTISEMENT