Killswitch Engage Tabs

Holy Diver

4 versions

TAB

            HOLY DIVER - KILLSWITCH ENGAGE
TABBED BY GEORGE WILLIAMS

GUITAR 1: JOEL  CGCFAD
GUITAR 2: ADAM  CGCFAD

legend:

| b     bend
| r     return
| /     slide up
| \     slide down
| h     hammer on
| p     pull off
| *     pinch harmonic
| ~     tremolo
| ...   palm muted
| x     muted note

THIS TAB TOOK ME AGES TO DO, AND IM PRETTY SURE IT'S PERFECT.
I HOPE YOU LIKE IT AND PLEASE COMMENT WITH ANY CORRECTIONS U MAY HAVE
THANKS A LOT

INTRO
|-----------------------|------------------|------------------|----------|
|-----------------------|------------------|------------------|----------|
|-----------------------|------------------|------------------|----------|
|-----------------------|------------------|------------------|----------| 1&2
|-5-----5-----5---7---8-|-5-----5--5-7-8\3-|-5-----5--5-7-8\3-|-5--3--5--|
|---0-0---0-0---0---0---|---0-0------------|---0-0------------|----------|

INTRO 2
|-----------------------|------------------|------------------|----------|
|-----------------------|------------------|------------------|----------|
|-----------------------|------------------|------------------|----------|
|-----------------------|------------------|------------------|----------| 1
|-5-----5-----5---7---8-|-5-----5--5-7-8\3-|-5-----5--5-7-8\3-|-5--3--1--|
|---0-0---0-0---0---0---|---0-0------------|---0-0------------|----------|
|
|-----------------------|-------------------|-------------------|----------|
|-----------------------|-------------------|-------------------|----------|
|-----------------------|-------------------|-------------------|----------|
|-3-----3-----3---5---7-|-3-----3--3-5--7\2-|-3-----3--3-5--7\2-|-7--5--3--| 2
|-----------------------|-------------------|-------------------|----------|
|---0-0---0-0---0---0---|---0-0-------------|---0-0-------------|----------|


|-------|
|-------|
|-------|
|-------| 1
|-------|
|-3*~~--|

VERSE
|------------------------------------------------------|
|------------------------------------------------------|
|------------------------------------------------------|
|------------------------------------------------------| 1
|--------------------------------------------------/1--|
|-0--0-0-0--0-0-0--0-0-0--0-0-0--0-0-0--0-0-0--0-0-----|
|
|------------------------------------------------------|
|------------------------------------------------------|
|------------------------------------------------------|
|--------------------------------------------------/3--| 2
|------------------------------------------------------|
|-0--0-0-0--0-0-0--0-0-0--0-0-0--0-0-0--0-0-0--0-0-----|


|--------------------------------|
|--------------------------------|
|--------------------------------|
|--------------------------------| 1
|---------------3-----3-----1~~--|
|-0--0-0-0--0-0---0-0---0-0------|
|
|--------------------------------|
|--------------------------------|
|--------------------------------|
|---------------5-----5-----3~~--| 2
|--------------------------------|
|-0--0-0-0--0-0---0-0---0-0------|


|-------|
|-------|
|-------|
|-------| 1
|-------|
|-3*~~--|


|------------------------------------------------------|
|------------------------------------------------------|
|------------------------------------------------------|
|------------------------------------------------------| 1
|--------------------------------------------------/1--|
|-0--0-0-0--0-0-0--0-0-0--0-0-0--0-0-0--0-0-0--0-0-----|
|
|------------------------------------------------------|
|------------------------------------------------------|
|------------------------------------------------------|
|--------------------------------------------------/3--| 2
|------------------------------------------------------|
|-0--0-0-0--0-0-0--0-0-0--0-0-0--0-0-0--0-0-0--0-0-----|








|----------------------------------|
|----------------------------------|
|----------------------------------|
|-------------------------------\\-| 1
|---------------3-----3-----0---\\-|
|-0--0-0-0--0-0---0-0---0-0-0---\\-|
|
|--------------------------------|
|--------------------------------|
|--------------------------------|
|---------------5-----5----------| 2
|---------------------------0----|
|-0--0-0-0--0-0---0-0---0-0-0----|

BREAK
|---------------------------------|
|---------------------------------|
|---------------------------------|
|-3-3-3-3-3-3-3-3-3-3-3-3-3-3-3-3-| 1&2
|-1-1-1-1-1-1-1-1-1-1-1-1-1-1-1-1-|
|---------------------------------|

CHORUS
|-----------------------|------------------|------------------|----------|
|-----------------------|------------------|------------------|----------|
|-----------------------|------------------|------------------|----------|
|-----------------------|------------------|------------------|----------| 1
|-5-----5-----5---7---8-|-5-----5--5-7-8\3-|-5-----5--5-7-8\1-|-5--3--1--|
|---0-0---0-0---0---0---|---0-0------------|---0-0------------|----------|
|
|-----------------------|------------------|------------------|----------|
|-----------------------|------------------|------------------|----------|
|-----------------------|------------------|------------------|----------|
|-----------------------|------------------|------------------|----------| 2
|-5-----5-----5---7---8-|-5-----5--5-7-8\3-|-5-----5--5-7-8\1-|-5--3--1--|
|---0-0---0-0---0---0---|---0-0------------|---0-0------------|----------|


REPEAT VERSE BUT WITH THE FOLLOWING LICK NEAR THE START:

|-15-13-15-13-------17-13-17-13-------15-13-15-13-------15b17-r15p13-15b17~~-|
|-------------17-15-------------17-15-------------17-15----------------------|
|----------------------------------------------------------------------------|
|----------------------------------------------------------------------------|
|----------------------------------------------------------------------------|
|----------------------------------------------------------------------------|

BREAK 2
|----------------------------------------------------------------|
|----------------------------------------------------------------|
|----------------------------------------------------------------|
|-3-3-3-3-3-3-3-3-3-3-3-3-3-3-3-3-5-5-5-5-5-5-5-5-5-5-5-5-5-5-5-5| 1&2
|-1-1-1-1-1-1-1-1-1-1-1-1-1-1-1-1-3-3-3-3-3-3-3-3-3-3-3-3-3-3-3-3|
|----------------------------------------------------------------|

BRIDGE
|--------------------------------------------------------|
|--------------------------------------------------------|
|--------------------------------------------------------|
|---------------------------------8----------------------| 1&2
|-12-12-12-12-12--10-10-10-10-10--8--5h7h8-----5h7h8-----|
|-12-12-12-12-12--10-10-10-10-10--8--------0-0-------0-0-|


|-----------------------------------------------|
|-----------------------------------------------|
|-----------------------------------------------|
|-----------------------7-----------------------| 1&2
|-0-0-0-0-0--8-8-8-8-8--7--3h4h5-----3h4h5------|
|-0-0-0-0-0--8-8-8-8-8--7--------0-0-------0-0--|






|--------------------------------------------------------|
|--------------------------------------------------------|
|--------------------------------------------------------|
|---------------------------------8----------------------| 1&2
|-12-12-12-12-12--10-10-10-10-10--8--5h7h8-----5h7h8-----|
|-12-12-12-12-12--10-10-10-10-10--8--------0-0-------0-0-|


|---------------------------------------------|
|---------------------------------------------|
|-------------------------------------10*~~~--|
|---------------------------------/8----------| 1&2
|-0-0-0-0-0--10-10-10-10-10--/15\-/8----------|
|-0-0-0-0-0--10-10-10-10-10--/15\-/8----------|


REPEAT VERSE BUT ADDING MORE OF EACH NOTE

SOLO
|------|-----------------------------|-------|----10-13-12-10h12p10----10-|
|------|-12b13-r12--10--12-----------|-------|-13-------------------13----|
|------|-12b13-r12--10--12p10----10~-|-------|----------------------------|
|------|----------------------12-----|-------|----------------------------| 1
|------|-----------------------------|-------|----------------------------|
|------|-----------------------------|-------|----------------------------|
|
|------|-----------------------------|-------|----------------------------|
|------|-----------------------------|-------|----------------------------|
|------|-----------------------------|-------|----------------------------|
|-5-7--|-----------------------------|-10-7--|----------------------------| 2
|-3-5--|-----------------------------|--8-5--|----------------------------|
|------|-----------------------------|-------|----------------------------|


|-----------------------------------------------10-12-13-18b20-r18-17p13h17~-|
|--------------------------10----10-11-10-11-13------------------------------|
|-------9-10-9-10-12-10-12----12---------------------------------------------|
|-12-12----------------------------------------------------------------------| 1
|----------------------------------------------------------------------------|
|----------------------------------------------------------------------------|
|
|---------|-------------------------------------------------|----------------|
|---------|-------------------------------------------------|----------------|
|---------|-------------------------------------------------|----------------|
|--7--7---|-------------------------------------------------|--10--7---------| 2
|--5--5---|-------------------------------------------------|---8--5---------|
|---------|-------------------------------------------------|----------------|


|---------------------------------------|
|--------10h13p10-----------------------|
|-----12----------12-10-10h12p10--------|
|--------------------------------12-10--| 1
|-15\-----------------------------------|
|-15\-----------------------------------|
|
|---------------------------------------|
|---------------------------------------|
|---------------------------------------|
|---------------------------------------| 2
|---------------------------------------|
|---------------------------------------|


|-----|----------------------------------|
|-----|----------------------------------|
|-----|----------------------------------|
|-7-7-|----------------------------------| 1
|-5-5-|----------------------------------|
|-----|----------------------------------|
|
|----------------------------------------|
|-10-10----------------------------------|
|-------12p10-----12*b-12*b-12p10----12b-|
|-------------12------------------12-----| 2
|----------------------------------------|
|----------------------------------------|







|-------|--------------------------------------------------------|
|-------|--------------------------------------------------------|
|-------|--------------------------------------------------------|
|-10-7--|--------------------------------------------------------| 1
|--8-5--|--------------------------------------------------------|
|-------|--------------------------------------------------------|
|
|----------------------------------------------------------------|
|-10-------------------------------------------------------------|
|----12-10-12-10-9-10-9---9-------12p10p9-10p9-----9-------------|
|-----------------------12--12-10--------------h12---h12p910h12--| 2
|----------------------------------------------------------------|
|----------------------------------------------------------------|


|------|-----------------------------------------------------------------------|
|------|-----------------------------------------------------------------------|
|------|-----------------------------------------------------------------------|
|-7-7--|-----------------------------------7-9------9-10-----------------------| 1
|-5-5--|-----------------------------------5-7------7--8-----------------------|
|------|-----------------------------------------------------------------------|
|
|-10-----10-----10-----10-----10---8-10b12-r10p8-10-------8-8------------------|
|----9-8----9-8----9-8----9-8----9------------------10-10-----8-8-5-6-6b8-r6-5-|
|------------------------------------------------------------------------------|
|------------------------------------------------------------------------------| 2
|------------------------------------------------------------------------------|
|------------------------------------------------------------------------------|


|-------------------------------------------|
|-8-6h8p6--------8-6h8p6-------10-6h10p6----|
|---------9-7-5----------9-7-5-----------9--|
|-------------------------------------------| 1
|-------------------------------------------|
|-------------------------------------------|
|
|-------------------------------------------|
|-------------------------------------------|
|-------------------------------------------|
|-3--3-3--3-3-3-3-3--3-3--3-3-3-3-3--3-3-3--| 2
|-1--1-1--1-1-1-1-1--1-1--1-1-1-1-1--1-1-1--|
|-------------------------------------------|


|-------------------------------------------|
|-8-6h8p6--------8-6h8p6-------10-6h10p6----|
|---------9-7-5----------9-7-5-----------9--|
|-------------------------------------------| 1
|-------------------------------------------|
|-------------------------------------------|
|
|-------------------------------------------|
|-------------------------------------------|
|-------------------------------------------|
|-5--5-5--5-5-5-5-5--5-5--5-5-5-5-5--5-5-5--| 2
|-3--3-3--3-3-3-3-3--3-3--3-3-3-3-3--3-3-3--|
|-------------------------------------------|


|-------------------------------------------|
|-8-6h8p6--------8-6h8p6-------10-6h10p6----|
|---------9-7-5----------9-7-5-----------9--|
|-------------------------------------------| 1
|-------------------------------------------|
|-------------------------------------------|
|
|-------------------------------------------|
|-------------------------------------------|
|-------------------------------------------|
|-7--7-7--7-7-7-7-7--7-7--7-7-7-7-7--7-7-7--| 2
|-5--5-5--5-5-5-5-5--5-5--5-5-5-5-5--5-5-5--|
|-------------------------------------------|








|-------------------------------------------|
|-8-6h8p6--------8-6h8p6-------10-6h10p6----|
|---------9-7-5----------9-7-5-----------9--|
|-------------------------------------------| 1
|-------------------------------------------|
|-------------------------------------------|
|
|-------------------------------------------|
|-------------------------------------------|
|-------------------------------------------|
|-9--9-9--9-9-9-9-9--9-9--9-9-9-9-9--9-9-9--| 2
|-7--7-7--7-7-7-7-7--7-7--7-7-7-7-7--7-7-7--|
|-------------------------------------------|


|------|
|------|
|-7----|
|-7----| 1&2
|-5----|
|------|


REPEAT VERSE, BUT IN SECOND PART GUITAR 2 PLAYS THIS

|--------------------------------------|------------------------------|
|--------------------------------------|------------------------------|
|-7-----7-----7-----7-----10-9h10p9----|-7-----7-----7-----7-----10*~-|
|-----------------------------------10-|------------------------------| 2
|--------------------------------------|------------------------------|
|---0-0---0-0---0-0---0-0--------------|---0-0---0-0---0-0---0-0------|

>PLAY BREAK 2 TWICE<

MAIN RIFF
|-----------------------|------------------|
|-----------------------|------------------|
|-----------------------|------------------|
|-----------------------|------------------| 1
|-5-----5-----5---7---8-|-5-----5--5-7-8\3-|
|---0-0---0-0---0---0---|---0-0------------|
|
|-----------------|
|-----------------|
|-10-10/12--10-9--|
|-----------------| 2
|-----------------|
|-----------------|


|-----------------------|------------------|
|-----------------------|------------------|
|-----------------------|------------------|
|-----------------------|------------------| 1
|-5-----5-----5---7---8-|-5-----5--5-7-8\3-|
|---0-0---0-0---0---0---|---0-0------------|
|
|-------------------|
|-------------------|
|-------------------|
|-10-10/12--8\7~~~--| 2
|-------------------|
|-------------------|    

Added On December 16th, 2013

SHARE

Comments

blog comments powered by Disqus

VERSIONS

ADVERTISEMENT