Killswitch Engage Tabs

Reject Yourself

4 versions

TAB

            Reject Yourself Tab by Killswitch Engage


Drop C

Intro Guitar 1
D ------------------------------------------------------------------|
A ------------------------------------------------------------------|
F ------------------------------------------------------------------|
C -----7-6------------------7-6------------------7-6----------------|
G --4-4-4-4-7h9p7-4h7p0--4-4-4-4-7h9p7-4h7p0--4-4-4-4-7h9p7-4h7p0---|
C ------------------------------------------------------------------|
    . . . .              . . . .              . . . .

  ---------------------|
  ----------676--------|
  -----9---9---9-7-6---|
  --6-7-6-7----------9-|  (played after 3 of the above riff) x2
  ---------------------|
  ---------------------|

  -----------------------------------------------------------------|
  -----------------------------------------------------------------|
  -----------------------------------------------------------------|
  --7-6------------------7-6------------------7-6------------------|
  -4-4-4-4-7h9p7-4h7p0--4-4-4-4-7h9p7-4h7p0--4-4-4-4-7h9p7-4h7p0---|
  -----------------------------------------------------------------|
    . . . .              . . . .              . . . .

  --------------------------|
  --------------------------|
  -676----------------------|
  ----9-7-6---676-----------|
  ----------9-----9-7-5-4---|
  --------------------------|

  Riff 1

  ------------------------------------------------|
  ------------------------------------------------|
  ------------------------------------------------|
  -------7-6-7---------------7-6-7----7-6-4-------| x3
  ------------------7-5-4-------------------------|
  ---44-4-4-4---44-4-4-4---77-7-7---77-7-7-7------|

  ------------------------------------------------|
  ------------------------------------------------|
  ------------------------------------------------|
  -------7-6-7---------------7-6-7-------7--77----| (fourth time round this
  ------------------7-5-4----------------7--77----|  is played instead)
  ---44-4-4-4---44-4-4-4---77-7-7---77-7-7--77----|

  ----------------------------------------|
  --------------111111119999777766666666--|
  --444466667777--------------------------| (This is played once before riff
  ----------------------------------------|  one is repeated again)
  ----------------------------------------|

  ------------------------------------------------|
  ------------------------------------------------|
  ------------------------------------------------|
  -------7-6-7---------------7-6-7----7-6-4-------| played once
  ------------------7-5-4-------------------------|
  ---44-4-4-4---44-4-4-4---77-7-7---77-7-7-7------|

  ------------------------------------------------|
  ------------------------------------------------|
  ------------------------------------------------|
  -------7-6-7---------------7-6-7-------7--77----|
  ------------------7-5-4----------------7--77----|
  ---44-4-4-4---44-4-4-4---77-7-7---77-7-7--77----|

  Chorus
  ----------------------------------------------------------------|
  ----------------------------------------------------------------|
  ---7-6-9~--------------------------7-6-9~-----------------------|
  --7-7-7------4--------------------7-7-7------4-----4-----2----2-| once
  -------------4--44444444----5s7~-------------4--44-4--44-2-22-2-|
  -------------4--44444444-467-----------------4--44-4--44-2-22-2-|
                  ........

  ----------------------------------------------------------------|
  ----------------------------------------------------------------|
  ---7-6-9~--------------------------7-6-9~-----------------------|
  --7-7-7------4--------------------7-7-7------4-----4----7-6-----| (second
  -------------4--44444444----5s7~-------------4--44-4--------7---|  time)
  -------------4--44444444-467-----------------4--44-4--44-4-4----|


  This is all I know so far, it's only one guitar and sounds pretty much
  correct. I'ts repeated again after this, and most of the song is based
  these areas in the tab so you might be able to work it out.

  Good Luck Peeps    

Added On December 5th, 2013

SHARE

Comments

blog comments powered by Disqus

VERSIONS

ADVERTISEMENT