Kings Of Leon Tabs

Notion

2 versions

TAB

            Kings Of Leon - Notion

Intro
e --0-0-0-0-0-0-0-0|--0--0-0-0-0--0-0-0--0-0|
B --5-5-5-4-2-2-2-0|-10-10-9-9-9-12-7-7-10-9|
G -----------------|------------------------|
D -----------------|------------------------|
A -----------------|------------------------|
E -----------------|------------------------|

Guitar 1			Guitar 2
e --0--0--0-----------|--------------------------------------|
B –-0--0--0-----------|--------------------------------------|
G --9--6--8-----------|-----9-----9------6-----6-----8-----8-|
D --9--6--8-----------|-----9-----9------6-----6-----8-----8-|
A --7--4--6-----------|-7-7-7-7-7----4-4-4-4-4-4-6-6-6—6-6-6-|
E --------------------|--------------------------------------|
                      pm. .   . .    . .   . .   . .   . .


Guitar 2
e ------------------------------------------|
B ------------------------------------------|
G ----9-9-9-9—--9-9-9-9---9-9-9-9---8-9-8-9-|
D ------------------------------------------|
A ------------------------------------------|
E ------------------------------------------|

SOLO
e ------------------------------------------|
B ---5-4-2/b6\--4/b7--5-4---4---------------|
G ------------------------6---6-4-----------|
D ------------------------------------------|
A ------------------------------------------|
E ------------------------------------------|

e ------------------------------------------|
B ---5-4-2/b6\--4/b7--5-4---b4—2~-----------|
G ------------------------6-----------------|
D ------------------------------------------|
A ------------------------------------------|
E ------------------------------------------|

Good stuff, its pretty close to the song, but I’m not sure about the verses and stuff, 
you can figure that out go for it

 j-ro    

Added On December 16th, 2013

SHARE

Comments

blog comments powered by Disqus

VERSIONS

ADVERTISEMENT