Kings Of Leon Tabs

Ragoo

4 versions

TAB

            Kings Of Leon - Ragoo - Guitar
Normal Tuning

Guitar 1 - Intro
   pm   ........................................pm
e--------------------------------------------------------|
B---6----6----6----6----6----3----3----3----3----3/2/0---|
G--------------------------------------------------------|
D--4----4----4----4----4----4----4----4----4----4--------|  x5
A-5----5----5----5----5----5----5----5----5----5---------|
E--------------------------------------------------------|

Guitar 2

e---------------------3----|
B---------------------3----|
G-11-11-11-11-7--7----4----|   x 14 (i think)
D-0--0--0--0--0--0----5----|
A-9--9--9--9--9--9----5----|
E-10-10-10-10-10-10---3/10-|

Guitar 1

e-7----------------7---------|
B-5-7-7b(8)b7------5-7-7b8p7-|
G----------------------------| + some variations
D----------------------------|
A----------------------------|
E----------------------------|

Chorus
Guitar 2                 Guitar 1
                                       /\/\
e-7-----3--5-             ------2-------5--|
B-7-----3--5-             -0-2-3--0-2-3----|
G-8-----4--6-   x 4       -----------------|  x4
D-9-----5--7-             -----------------|
A-9-----5--7-             -----------------|
E-7-----3--5-             -----------------|

repeat of other sections:

Verse
Chorus
Solo

e---------------13---13---13---13---13---13-----13-----------13------|
B------14--14-----14---14---14---14---14---14---14-1414-1414-14-14---|
G-13-13--13--13-----13---13---13---13---13---13-13-------------------|
D-----------------------------------------------15-------------------|
A--------------------------------------------------------------------|
E--------------------------------------------------------------------|
                                \/\/\/
-13-----------------13-------------------------------------------------|
---1414-1414-12-----14-x-14-x-14----------14---------------------------|
---------------14---13-x-13-x-13----------13-x-13-x-13-----------------|
--------------------15-----------15b16----15-x-15-x-15--16-15-13h15-12-|
-----------------------------------------------------------------------|
-----------------------------------------------------------------------|
-----------------------------------------------------------------------|

after creating this tab i realised the actual version is probably played around the D 
but my way sounds good.
Enjoy all comments welcome unless they aint!    

Added On December 16th, 2013

SHARE

Comments

blog comments powered by Disqus

VERSIONS

ADVERTISEMENT