Kingston Wall Tabs

Mushrooms

1 versions

TAB

            -------------------------------------------------------------------------------
	           Kingston Wall :: Mushrooms IV - Mushrooms
-------------------------------------------------------------------------------
Tabbed by: For
Email: -

Tuning: ½ step down.
   \/with delay
e|------------------------------------------------------------|
B|-0---0---0----7-0-0-7-0-0-7-0-7-0-0-7-0-0-9-----------------|
G|------------------------------------------------------------| x a few
D|------------------------------------------------------------|
A|------------------------------------------------------------|
E|------------------------------------------------------------|
\/this 'thing' goes on a few times, listen to the song.. \/let ring
e|-----------------------|------------------------------------| 
B|-----------------------|------------------------------------| 
G|-----------------------|------------------------------------| x a few
D|-4---4---4---4---4--3--|--4---------------------------------|
A|-2---2---2---2---2-----|--2---------------------------------|
E|-----------------------|------------------------------------|
 at some point, play this 'thing'
e|------------------------------------------------------------|
B|------------------------------------------------------------|
G|------------------------------------------------------------|
D|-----------------2h3h4-x-0h1h2------------------------------|
A|-2-2-x-2-x-2---2--------------------------------------------|
E|------------------------------------------------------------|

As you can (probably) see, I didn't tab the "solo" or the "slide-thing", 
you can probably figure them out on your own.


| /  slide up
| \  slide down
| h  hammer-on
| p  pull-off
| ~  vibrato
| +  harmonic
| x  Mute note
===============================================================================    

Added On December 16th, 2013

SHARE

Comments

blog comments powered by Disqus

ADVERTISEMENT