Kingston Wall Tabs

Tanya

1 versions

TAB

            Tanya Tab by Kingston Wall


**NOTE**

This tab wasn't originally made by me, and the lack of KW tabs on this site made me 
this song. The original can be found at http://www.kotiposti.net/akiko/mirrorlandv2/tabs/tanya.txt

tune down 1/2 step
lead guitar played with mild distortion and delay effect.

#############################################################################

                                          (1)

|------------------5-6-4-5----------5-8-5-4----0-----|
|-5-4-6---5-4-64h5---------5-4-64h5----------03-30h3-|
|-------------------------------------------2--------|
|------------------0----------------0----------------|
|-0-------0----------------0-------------------------|
|-----------------------------------------0----------|

 -5-8-5-4-------------------7-5-8-5-7-5-8-5-7-|
 ---------553311001h3-5-4-5-------------------|
 ---------------------------------------------|
 -0-------------------------0-------0---------|
 ---------------------0-----------------------|
 -------0-----------------------------------0-|

 -5544-------------------------5-6-4-5----------5-8-5-|
 -----6655335--5-4-64h5-4-64h5---------5-4-64h5-------|
 -----------------------------------------------------|
 ------------------------------0----------------0-----|
 --------------0------0----------------0--------------|
 -----------------------------------------------------|

 jump to spot (1) and repeat

 ending (3:20):

 -7-5544--------7--|
 -------6655335-7--|
 ---------------9--|
 ---------------7--|
 ------------------|
 -0----------------|    

Added On December 5th, 2013

SHARE

Comments

blog comments powered by Disqus

ADVERTISEMENT