Kisschasy Tabs

Shake

3 versions

TAB

            Shake Tab by Kisschasy


Band: Kisscahsy
Song Name: The Shake
Album: United Paper People
Tuning: Normal


Chords

G7mB  Cadd9   G   A7 4
|--2--|--0--|--3--|--0--|
|--3--|--3--|--3--|--3--|
|--0--|--0--|--0--|--0--|
|--X--|--X--|--X--|--2--|
|--2--|--3--|--X--|--0--|
|-----|-----|--3--|-----|


Intro/verse
|-----2------0------0------0---|
|----3-3----3-3----3---3--3-3--|
|---0---0--0---0--0------------|
|------------------------------|
|--2------3-----0-------0------|
|------------------------------|

1st Break.
|--3~-------0--------------3~--|
|--3~--------3-------------3~--|
|--0~------0---0-0-4b5b4---0~--|
|--X------2-----2--0-------X~--|
|--3~----0-----------------3~--|
|------------------------------|x2


Play verse riff again 6 times.


Chorus
(the shake before i sleep)
|--3--|--2--|
|--3--|--3--|
|--0--|--0--|
|--X--|--2--|
|--3--|--0--|
|-----|-----|


Outro
|-----|-----|
|--3--|--2--|
|--0--|--0--|
|--X--|--X--|
|--3--|--2--|
|-----|-----|

Lyrics:
The scratching of paper and pen,
Reminds me of song I wrote two years back.
I remember each and every line,
Like a photo glued to the lids of my eyes.

The shiver of my wheezing chest, Reminds me of the way I felt two years back.
And as we lose all track of time,
I feel her breath like ice on the tip of my spine.

The shake before I sleep,
The shake before I sleep,
The shake before I sleep,
Oh-oh-oh.

The shake before I sleep,
The shake before I sleep,
The shake before I sleep.

I wait for the bed to get warm,
As my eyes adjust to the darkest light form.
And as I start to drift away,
You're the shake that pulls me back to this state.

The shake before I sleep,
The shake before I sleep,
The shake before I sleep,
Oh-oh-oh.

The shake before I sleep,
The shake before I sleep,
The shake before I sleep.

You're the shake... (X10)    

Added On December 5th, 2013

SHARE

Comments

blog comments powered by Disqus

VERSIONS

ADVERTISEMENT