Kutless Tabs

Beyond The Surface

4 versions

TAB

            Beyond The Surface Tab by Kutless


listen to the song to get the rythm

|----------------------|
|----------------------|
|----------------------|  REPEAT X3
|555-7-----------------|
|333-5-----------------|
|------0-0-0-0-0-0-0-0-|

 THEN...

P.M..    ...
|-----------------|
|-----------------|
|-----------------|
|----3-5----5-7---|
|-----------------|
|0-0----0-0-------|


HERE'S THAT COOL SOUNDING PART OF THE SONG...
P.M...........    ...
|----------------------------|
|----------------------------|
|----------------------------| REPEAT X2
|----------------------------|
|--------------3P-----5/3---7|
|0-0-0-0-0-0-0-3P-0-0-5/3-0-7|

P.M...........   ....
|------------------------------------------------------|
|------------------------------------------------------|
|------------------------------------------------------|
|------------------------------------------------------|
|--------------3P-----5/3-----7-3-5---7--5-7--7-9-10-7-|
|0-0-0-0-0-0-0-3P-0-0-5/3-0-0-7-3-5-0-7--5-7--7-9-10-7-|

I'M STILL WORKING ON THE REST SORRY
WELL ENJOY

AND YOU'RE WELCOME FOR THOSE WHO HAVE BEEN WAITING FOR THIS TAB    

Added On December 5th, 2013

SHARE

Comments

blog comments powered by Disqus

VERSIONS

ADVERTISEMENT