Kutless Tabs

Million Dollar Man

1 versions

TAB

            Million Dollar Man Tab by Kutless


Kutless
Million Dollar Man
Tabbed by U B the band
Tuning D A D G B E
 
This tab took me awhile so please comment and rate-PMT

Intro guitar 1: 00:00
E|--------------------------------------------|
B|--------------------------------------------|
G|--------------------------------------------|
D|--0000----000---------0000----000-----------|
A|--0000----000---------0000----000-----------|
D|--0000----000---------0000----000-----------|x2

guitar 2: 00:00
E|--------------------------------------------|
B|-------6------5h6p5--------6------5h6p5-----|
G|-------9-----------7-------9-----------7----|
D|--------------------------------------------|
A|--------------------------------------------|
D|--------------------------------------------|x2

guitar 1: 00:05
E|---------------------------|
B|---------------------------|
G|---------------------------|
D|--8888------888------------|
A|--8888------888------------|
D|--8888------888------------|x2

guitar 2: 00:05
E|---------------------------|
B|---------------------------|
G|---------9------7h9p7------|
D|--------10-----------10----|
A|---------------------------|
D|---------------------------|x2

guitar 1: 00:10
E|-----------------------------------------|
B|-----------------------------------------|
G|-----------------------------------------|
D|--0000---000--------0000---000-----------|
A|--0000---000--------0000---000-----------|
D|--0000---000--------0000---000-----------|x2

guitar 2: 00:10
E|-----------------------------------------|
B|-------6-----5h6p5--------6----5h6p5-----|
G|-------9----------7-------9---------7----|
D|-----------------------------------------|
A|-----------------------------------------|
D|-----------------------------------------|x2

guitar 1: 00:15
E|--------------------------------------------------------|
B|--------------------------------------------------------|
G|--------------------------------------------------------|
D|--8888-----8-8-8----------10-10-10-10------10-10-10x/x--|
A|--8888-----8-8-8----------10-10-10-10------10-10-10x/x--|
D|--8888-----8-8-8----------10-10-10-10------10-10-10x/x--|

guitar 2: 00:15
E|--------------------------------------------------------|
B|--------------------------------------------------------|
G|---------9-------7h9p7------------------9---------------|
D|--------10------------10---------------10----------x/x--|
A|---------------------------------------------------x/x--|
D|---------------------------------------------------x/x--|

guitar 1: 00:21
E|--------------------------------------------------------------|
B|--------------------------------------------------------------|
G|----------------5-5-5-5-5------------------------55555-77777--|
D|--00000--33333--5-5-5-5-5---55555--00000--33333--55555-55555--|
A|--00000--33333--3-3-3-3-3---55555--00000--33333--33333-55555--|
D|--00000--33333--------------55555--00000--33333--------55555--|

guitar 2: 00:21
E|--------------------------------------------------------------|
B|--66666--55555--1010101010--33333--66666--55555---------------|
G|--77777--55555--1010101010--00000--77777--55555--53333-77777--|
D|-------------------------------------------------53333-xxxxx--|
A|-------------------------------------------------33333-55555--|
D|--------------------------------------------------------------|

guitars 1: 00:31
E|---------------------------------|
B|---------------------------------|
G|---------------------------------|
D|--000---000---888---10-10-10-----|
A|--000---000---888---10-10-10-----|
D|--000---000---888---10-10-10-----|

guitars 2: 00:31
E|---------------------------------|
B|------6-----6-----6--------------|
G|------9-----9-----7-----------9--|
D|-----------------------------10--|
A|---------------------------------|
D|---------------------------------|

guitars 1: 00:36
E|---------------------------------|
B|---------------------------------|
G|---------------------------------|
D|--000---000---888---10-10-10-----|
A|--000---000---888---10-10-10-----|
D|--000---000---888---10-10-10-----|x2

guitars 2: 00:36
E|---------------------------------|
B|------6-----6-----6--------------|
G|------9-----9-----7-----------9--|
D|-----------------------------10--|
A|---------------------------------|
D|---------------------------------|x2

guitar 1: 00:47
E|--------------------------------------|
B|--------------------------------------|
G|--------------------------------------|
D|--000---000---888---10-10-10----------|
A|--000---000---888---10-10-10----------|
D|--000---000---888---10-10-10----------|

guitar 2: 00:47
E|--------------------------------------|
B|------6-----6-----6-------------------|
G|------9-----9-----7----------7h9p7----|
D|----------------------------------10--|
A|--------------------------------------|
D|--------------------------------------|

guitar 1: 00:52
E|--------------|
B|--------------|
G|--10----------|
D|--8-----10----|
A|--8-----10----|
D|--8-----10----|

Chorus guitar 1: 00:58
E|----------------------|
B|----------------------|
G|------------5---------|
D|--0----3----5----5----|
A|--0----3----3----5----|
D|--0----3---------5----|x3

guitar 2: 00:58 each little chord hit 5 times
E|--------5-----------------------5-------|
B|--6--5--6--3--6--5--------6--5--6--3----|
G|--7--5-----0--7--5--5--7--7--5-----0----|
D|--------------------5--x----------------|
A|--------------------3--5----------------|
D|----------------------------------------|

guitar 1: 01:13
E|------------|
B|------------|
G|-------5----|
D|--3----5----|
A|--3----3----|
D|--3---------|

link from chorus to verse 2 guitar 1: 01:19
E|---------------------------------|
B|---------------------------------|
G|---------------------------------|
D|--000---000---888---10-10-10-----|
A|--000---000---888---10-10-10-----|
D|--000---000---888---10-10-10-----|

link from chorus to verse 2 guitar 2: 01:19
E|---------------------------------|
B|------6-----6-----6--------------|
G|------9-----9-----7-----------9--|
D|-----------------------------10--|
A|---------------------------------|
D|---------------------------------|

verse 2 guitars 1: 01:24
E|---------------------------------|
B|---------------------------------|
G|---------------------------------|
D|--000---000---888---10-10-10-----|
A|--000---000---888---10-10-10-----|
D|--000---000---888---10-10-10-----|x2

verse 2 guitars 2: 01:24
E|---------------------------------|
B|------6-----6-----6--------------|
G|------9-----9-----7-----------9--|
D|-----------------------------10--|
A|---------------------------------|
D|---------------------------------|x2

guitar 1: 01:34
E|--------------------------------------|
B|--------------------------------------|
G|--------------------------------------|
D|--000---000---888---10-10-10----------|
A|--000---000---888---10-10-10----------|
D|--000---000---888---10-10-10----------|

guitar 2: 01:34
E|--------------------------------------|
B|------6-----6-----6-------------------|
G|------9-----9-----7----------7h9p7----|
D|----------------------------------10--|
A|--------------------------------------|
D|--------------------------------------|

guitar 1: 01:40
E|--------------|
B|--------------|
G|--10----------|
D|--8-----10----|
A|--8-----10----|
D|--8-----10----|

Chorus guitar 1: 01:45
E|----------------------|
B|----------------------|
G|------------5---------|
D|--0----3----5----5----|
A|--0----3----3----5----|
D|--0----3---------5----|x3

guitar 2: 01:45 each little chord hit 5 times
E|--------5-----------------------5-------|
B|--6--5--6--3--6--5--------6--5--6--3----|
G|--7--5-----0--7--5--5--7--7--5-----0----|
D|--------------------5--x----------------|
A|--------------------3--5----------------|
D|----------------------------------------|

guitar 1: 02:01
E|------------|
B|------------|
G|-------5----|
D|--3----5----|
A|--3----3----|
D|--3---------|

Bridge guitar 1: 02:06/02:11-|
E|--------------|            |
B|--------------|            |
G|--10----------|            |
D|--8-----10----|            |
A|--8-----10----|            |
D|--8-----10----|            |
                             |
guitar 2: 02:06/02:11        |
E|------------------------|  |
B|------------------------|  |
G|--10----7----9----10----|  |
D|--x-----x----x----x-----|  |
A|--8-----5----7----8-----|  |
D|------------------------|  |
                             |
guitars 1 and 2: 02:09/02:14 |
E|----------------------|    |
B|----------------------|    |
G|-------7------10------|    |play 2 times
D|--000--x--000--x------|    |
A|--000--5--000--8------|    |
D|--000-----000---------|    |
                        -----|
Bridge continued guitar 1: 02:16
E|--------------|
B|--------------|
G|--10----------|
D|--8-----10----|
A|--8-----10----|
D|--8-----10----|

guitar 2: 02:16
E|------------------------|
B|------------------------|
G|--10----7----9----10----|
D|--x-----x----x----x-----|
A|--8-----5----7----8-----|
D|------------------------|

guitars 1 and 2: 02:19
E|-------------|
B|-------------|
G|-------7-----|
D|--000--x-----|
A|--000--5-----|
D|--000--------|

Chorus guitar 1: 02:21
E|----------------------|
B|----------------------|
G|------------5---------|
D|--0----3----5----5----|
A|--0----3----3----5----|
D|--0----3---------5----|x3

guitar 2: 02:21 each little chord hit 5 times
E|--------5-----------------------5-------|
B|--6--5--6--3--6--5--------6--5--6--3----|
G|--7--5-----0--7--5--5--7--7--5-----0----|
D|--------------------5--x----------------|
A|--------------------3--5----------------|
D|----------------------------------------|

guitar 1: 02:38
E|------------|
B|------------|
G|-------5----|
D|--3----5----|
A|--3----3----|
D|--3---------|

outro guitar 1: 02:43
E|--------------|
B|--------------|
G|--10----------|
D|--8-----10----|
A|--8-----10----|
D|--8-----10----|

guitar 2: 02:43
E|------------------------|
B|------------------------|
G|--10----7----9----10----|
D|--x-----x----x----x-----|
A|--8-----5----7----8-----|
D|------------------------|

guitars 1 and 2: 02:45
E|-------------|
B|-------------|
G|-------7-----|
D|--000--x-----|
A|--000--5-----|
D|--000--------|

Long song eh!    

Added On December 5th, 2013

SHARE

Comments

blog comments powered by Disqus

ADVERTISEMENT