Kutless Tabs

Tonight

3 versions

TAB

            Tonight Tab by Kutless


#################Please Note######################                  
#This song is the artist own interp. of the song #
#and should only be used for private study or fun#
################################################## 

Song:Tonight
Album:Kutless
Tuning:DADGBE

Intro AND VERSEs
----------------------------------------------
----------------------------------------------
----------------------------------------------
----------------------------------------------
-5--6-4-6-5---5--6--4--6--5--5-6-4-6-7-8-6-5--
-0--0-0-0-0---0--0--0--0--0--0-0-0-0-0-0-0-0--

CHORUS
------------------------------------------------
------------------------------------------------
------------------------------------------------
-0-0--3-3-8-8-----0-0-3-3-9-9-----1-1--2-2--0---
-0-0--3-3-8-8-----0-0-3-3-9-9-----1-1--2-2--0---
-0-0--3-3-8-8-----0-0-3-3-9-9-----1-1--2-2--0---


Bridge
-----------------------------------------------
-----------------------------------------------
-----------------------------------------------
-----------------------------------------------
--5--6--4--6--5--6--4--6--5--and here the end of the chourus
-----------------------------------------------    

Added On December 5th, 2013

SHARE

Comments

blog comments powered by Disqus

VERSIONS

ADVERTISEMENT