Lady Gaga Tabs

The Fame

1 versions

TAB

            -----------------------------------------------------------------------------
			    Lady Gaga - The Fame
-----------------------------------------------------------------------------

Tabbed by: david k
Email: thischarmingman13@gmail.com

Tuning: std

main riff
e|---------------------------------------------------------------------------|
B|---------------------------------------------------------------------------|
G|----------------------------------------------10---9-----------------------|
D|-5---7----8-----5---7----8-----5---7----8-----10---10----------------------|
A|-5---7----8-----5---7----8-----5---7----8-----8----7-----------------------|
E|-3---5-/--6-----3---5-/--6-----3---5-/--6---------------8\-----------------|

this funky interlude is peppered into the chorus
e|--13---13---13---13---13---13--12------------------------------------------|
B|--11---11---11---11---11---11--11------------------------------------------|
G|--12---12---12---12---12---12--12------------------------------------------|
D|---------------------------------------------------------------------------|
A|---------------------------------------------------------------------------|
E|---------------------------------------------------------------------------|

| /  slide up
| \  slide down
| h  hammer-on
| p  pull-off
| ~  vibrato
| +  harmonic
| x  Mute note
=============================================================================    

Added On December 16th, 2013

SHARE

Comments

blog comments powered by Disqus

ADVERTISEMENT