Laura Shigihara Tabs

Everythings Alright To The Moon

1 versions

TAB

            Hey guys! this is my first tab, so I hope I did a good job. I really love this 
song, and its from my favorite game, "To the Moon". 

Intro

E|---------------------------------------------------------------------|
B|---------------------------------------------------------------------|
G|---------------------------12-------------------------------12-------|
D|------10--12--14--10--9----------------10--12--14--10--9----------10-|
A|--10-------------------------------10--------------------------------|
E|---------------------------------------------------------------------|

Verse

E|---------------------------------------------------------------------------------------------|
B|---------------------------------------------------------------------------------------------|
G|------9----------9-------9--7--9--12--9--7----9--------9----------9-------9--7--9--12--9--7--|
D|--10-----9----9-----7------------------------------10-----9----9-----7-----------------------|
A|---------------------------------------------------------------------------------------------|
E|---------------------------------------------------------------------------------------------|



E|----------------------------------------------------------------------------------|
B|------10-----8---------------------------------10-----8---------------------------|
G|--10------9-------------9------------------10------9-------------9----------------|
D|----------------10--12-----10--7--10--9------------------10--12-----10--7--10--9--|
A|----------------------------------------------------------------------------------|
E|----------------------------------------------------------------------------------|

Chorus

E|---------------------------------------------------------------------------------------------|
B|-----------------10-----10--10--12--12--13--12--12-------------------------------------------|
G|----------9--12-------------------------------------12--9--9--10--10--9--10--9--10--9--9-----|
D|--10--12-------------9-----------------------------------------------------------------------|
A|---------------------------------------------------------------------------------------------|
E|---------------------------------------------------------------------------------------------|



E|-------------------------------------------------------------------------|
B|-----------------10-------10--10--12--12--13--12--12---------11--10------|
G|----------9--12---------------------------------------12--9----------12--|
D|--10--12-------------9---------------------------------------------------|
A|-------------------------------------------------------------------------|
E|-------------------------------------------------------------------------|



E|------------------------------------------|
B|------------------------------------------|
G|--10--9------------------9--7-------------|
D|---------10--10------10--------10--9--10--|
A|-----------------10-----------------------|
E|------------------------------------------|


You then play the entire tab again, and then end it with the intro.

Thanks! hope you guys enjoy!    

Added On December 16th, 2013

SHARE

Comments

blog comments powered by Disqus

ADVERTISEMENT