Led Zeppelin Tabs

Dazed And Confused

10 versions

TAB

            Dazed And Confused Tab by Led Zeppelin


-------------------------------------------------------------------------------
			     Dazed amd Confused- Led Zeppelin
-------------------------------------------------------------------------------
Tabbed by: Twisted Iggy
Email: psycorocker88@hotmail.com

Tuning: Standard 
                         

                   Intro
 			  + +       + +   +  +   + + (harmonics)
e|-------------------------12---------5--------------------------------------|
B|-----------------------12---------5-------12-----5-------------------------|
G|----------------------------------------12-----5---------------------------|
D|---------------------------------------------------------------------------|
A|---------------------------------------------------------------------------|
E|-0h3--2--1--00----------(bass fill)----------------------------------------|



            Part 1
e|---------------------------------------------------------------------------|
B|---------------------------------------------------------------------------|
G|---------------------------------------------------------------------------|
D|---2---12--11--10--9-9--2--------------------------------------------------|x2
A|---2---10--9---8---7-7--2--12--11--10--9-9---------------------------------|
E|---0--------------------0--10--9---8---7-7---------------------------------|


       Part 2								Ending
e|--------------------------------------------------------------------|-------|
B|--------------------------------------------------------------------|-------|
G|--------------------------------------------------------------------|-------|
D|------------7h9-----------------7h9----------------7h9-------------2|-2-----|
A|---9-9--7h9-----7h9--9-9-9--7h9-----7h9-9-9-9--7h9-----7h9--9-9-9--2|-2-----|
E|---7-7---------------7-7-7--------------7-7-7---------------7-7-7--0|-0-----|

Order:  Intro
	Part 1
	Part 2
	Part 1
	pm: Part 1
	Part 2
	Part 1
	Part 2
	Solo ---------> Sorry, haven't figured out the solo yet.
	Part 2
	Part 1 
	Part 2
	Ending : Woth the ending just strum it as many times as you want, but on
                 the last strum let it ring and fade out on its own.

| /  slide up
| \  slide down
| h  hammer-on
| p  pull-off
| ~  vibrato
| +  harmonic
| x  Mute note
| pm palm muted
=========================================================================    

Added On December 5th, 2013

SHARE

Comments

blog comments powered by Disqus