Led Zeppelin Tabs

Kashmir

4 versions

TAB

            ----------------------------------------------------------------------------
			     KASHMIR - Led Zeppelin
----------------------------------------------------------------------------
Tabbed by: Cody (led_zep_1789)
Email: giventofly1789@yahoo.com, led_zep_1789@hotmail.com

Tuning: DADGAD

| /  slide up
| \  slide down
| h  hammer-on
| p  pull-off
| ~  vibrato
| +  harmonic
| x  Mute note

D|-------------------------------------------------------------------------|
A|-------------------------------------------------------------------------|
G|-2-2-2---2-2-2---3-3-3---3-3-3---4-4-4---4-4-4---5-5-5---5-5-5---7-7-7---|
D|-0-0-0---0-0-0---0-0-0---0-0-0---0-0-0---0-0-0---0-0-0---0-0-0---0-0-0---|
A|-5-5-5---5-5-5---5-5-5---5-5-5---5-5-5---5-5-5---5-5-5---5-5-5---5-5-5---|
D|---------------0---------------0---------------0---------------0---------|

D|-----------------------------------------------------------|
A|-----------------------------------------------------------|
G|-2-2-2---3-3-3---3-3-3---4-4-4---4-4-4---5-5-5---5-5-5-----|
D|-0-0-0---0-0-0---0-0-0---0-0-0---0-0-0---0-0-0---0-0-0-----|
A|-5-5-5---5-5-5---5-5-5---5-5-5---5-5-5---5-5-5---5-5-5-----|
D|-------0---------------0---------------0---------------0---|

---

D|-12-12---10-10---7-7---5-5---3-3----------|
A|-0--0----0--0----0-0---0-0---0-0----------|
G|-12-11---10-9----7-6---5-4---3-2----------| Repeat 2X
D|---------------------------------3-2-0----|
A|------------------------------------------|
D|------------------------------------------|

D|-------------------------------------------|
A|-------------------------------------------|
G|-3-3-3---4-4-4---4-4-4---5-5-5---5-5-5-----|
D|-0-0-0---0-0-0---0-0-0---0-0-0---0-0-0-----|
A|-5-5-5---5-5-5---5-5-5---5-5-5---5-5-5-----|
D|-------0---------------0---------------0---|

D|-12-12---10-10---7-7---5-5---3-3---------|
A|-0--0----0--0----0-0---0-0---0-0---------|
G|-12-11---10-9----7-6---5-4---3-2---------|
D|----------------------------------3-2-0--|
A|-----------------------------------------|
D|-----------------------------------------|

D|-12-12---10-10---7-7---5-5---3-3--|
A|-0--0----0--0----0-0---0-0---0-0--|
G|-12-11---10-9----7-6---5-4---3-2--|
D|----------------------------------|
A|----------------------------------|
D|----------------------------------|

---

D|----------------------------------------------------------|
A|----------------------------------------------------------|
G|----------------------------------------------------------| Repeat 5x
D|-3-2-0---0-2-2----2/4--2---11\2--------2----2/4--2---11\2-|
A|-------2-----0----0----0---12\0--------0----0----0---12\0-|
D|----------------------------------------------------------|

---

D|-12-12---10-10---7-7---5-5---3-3---------|
A|-0--0----0--0----0-0---0-0---0-0---------|
G|-12-11---10-9----7-6---5-4---3-2---------| Repeat 2x
D|----------------------------------3-2-0--|
A|-----------------------------------------|
D|-----------------------------------------|

---

D|--5------------7-------------------------------------). Random strumming
A|--5------------7-------------------------------------). switching between
G|--7------------9-------------------------------------). these two chords.
D|--5------------7-------------------------------------). I personally like
A|--5------------7-------------| to play just the 3----).
D|--5------------7-------------| bottoms strings (DAD--).
                                 It gives it more of a
                                 heavy crunch I guess...

---

D|------------------------------------------|
A|------------------------------------------|
G|-----------------------2-4-6~~~~~~~~------|  Repeat until it fades out.
D|----------------2--3-5--------------------|
A|----------3--5----------------------------|
D|--5--7--8---------------------------------|


Well, this IS everything and it IS correct...I checked it like 
times. So if you DO see an error, notify me and I will correct it.    

Added On December 16th, 2013

SHARE

Comments

blog comments powered by Disqus

VERSIONS

ADVERTISEMENT