Lee Dewyze Tabs

Blackbirds Song

1 versions

TAB

            -------------------------------------------------------------------------------
                                        BLACKBIRD'S SONG - Lee DeWyze
-------------------------------------------------------------------------------
Tabbed by: tele.kom
Here is a little video lesson I did: https://www.youtube.com/watch?v=JsAG3OYbZzU

Tuning: Drop D

Intro/Verse/Chorus
e|------------------------------------------------------------------------------------------|
B|------3--------3--------3--------3----------5--------5-------3------3--------3-------3----|
G|--------2--------2--------2--------2----------4-----------------------2-------------------|
D|----0--------0--------0--------0-----0----0--------0-------0------0--------0-------0------|
A|-------------------------------------------------------------------------------0h2--------|
D|-0--------0--------3--------3--------3/5--------5------5/3-----0--------0-----------------|


Chords strummed near the end of the song
e|----------------------------|
B|--3--------3--------5-------|
G|--2--------2--------4-------|
D|--x--------x--------x-------|
A|--0--------3--------5-------|
D|--0--------3--------5-------|    

Added On March 11th, 2014

SHARE

Comments

blog comments powered by Disqus

ADVERTISEMENT