Linkin Park Tabs

In Pieces

7 versions

TAB

            Title: In Pieces
Artist: Linkin Park
Album: Minutes To Midnight

.= Palm Mute
h = Hammer On
p = Pull Off
/ = Slide Up
\ = Sldie Down


Tuning: Drop D (D A D G B E) 


INTRO 

   .   .   .   .  .           .   .   .
E|-------------------|      |-----------------|
B|-------------------|  x3  |-----------------|  
G|-------------------|      |-----------------|
D|-------------------|      |-----------------|
A|-11--11--11--11-13-|      |-11--11--10------|
D|-------------------|      |-----------------|
   .   .   .   .  .           .   .   .

VERSE(1) / CHORUS(1) (arranged for guitar) 

   .   .   .   .  .           .   .   .   .
E|-------------------|      |-----------------|
B|-------------------|  x3  |-----------------|  *Riff is played throughout
G|-------------------|      |-----------------|   most of the song.
D|-------------------|      |-----------------|
A|-11--11--11--11-13-|      |-11--11--10--10--|
D|-------------------|      |-----------------|
   .   .   .   .  .           .   .   .   .


--Real Guitar comes in--

VERSE(2) (each chord is played in a clean staccato style)

E|--------------|--------------|--------------|------------|------------|
B|-11---9--9--9-|-11---9--9--9-|-11---9--9--9-|-9--9--9--9-|-9--9--8--8-|
G|-10---8--8--8-|-10---8--8--8-|-10---8--8--8-|-8--8--8--8-|-8--8--7--7-|
D|-8----6--6--6-|-8----6--6--6-|-8----6--6--6-|-6--6--6--6-|-6--6--5--5-|
A|--------------|--------------|--------------|------------|------------|
D|--------------|--------------|--------------|------------|------------|

E|--------------|--------------|------------|------------|
B|-9--9--9--11--|-9--9--9--11--|-9--9--9--9-|-9--9--8--8-|     
G|-8--8--8--10--|-8--8--8--10--|-8--8--8--8-|-8--8--7--7-|
D|-6--6--6--8---|-6--6--6--8---|-6--6--6--6-|-6--6--5--5-|
A|--------------|--------------|------------|------------|
D|--------------|--------------|------------|------------|

E|--------------|--------------|------------|------------|
B|-9--9--9--11--|-9--9--9--11--|-9--9--9--9-|-9--9--8--8-|     
G|-8--8--8--10--|-8--8--8--10--|-8--8--8--8-|-8--8--7--7-|
D|-6--6--6--8---|-6--6--6--8---|-6--6--6--6-|-6--6--5--5-|
A|--------------|--------------|------------|------------|
D|--------------|--------------|------------|------------|

E|--------------|--------------|--------------|------------|
B|-9--11--9--9--|-9--11--9--9--|-9--11--9--9--|-9--9--8--8-|     
G|-8--10--8--8--|-8--10--8--8--|-8--10--8--8--|-8--8--7--7-|
D|-6--8---6--6--|-6--8---6--6--|-6--8---6--6--|-6--6--5--5-|
A|--------------|--------------|--------------|------------|
D|--------------|--------------|--------------|------------|


CHORUS(2) (played simular style to verse) (Played Twice) 

E|----------------|----------------|------------------|------------------|
B|-13--14--16--16-|-13--14--16--16-|--13--13--13--13--|--11--11--11--11--|
G|-12--13--15--15-|-12--13--15--15-|--12--12--12--12--|--10--10--10--10--|
D|-10--11--13--13-|-10--11--13--13-|--10--10--10--10--|--8---8---8---8---|
A|----------------|----------------|------------------|------------------|
D|----------------|----------------|------------------|------------------|


SOLO

Guitar 1
E|-----------------------------------------------------------------|
B|-----------------------------------------------------------------|  x3
G|-----------------------------------------------------------------| 
D|-18p17p15-18p17p15-18p17p15-18p17p15-18p17p15-18p17p15--17-15----| 
A|--------------------------------------------------------------15-| 
D|-----------------------------------------------------------------|  

E|-----------------------------------------------------------------|
B|-----------------------------------------------------------------|
G|-----------------------------------------------------------------| 
D|-----------------------------------------------------------------| 
A|-18-18-18-18-18-18-18-18-17-17-17-17-17-17-17-17-----------------| 
D|-----------------------------------------------------------------|

E|-----------------------------------------------------------------|
B|-----------------------------------------------------------------|  x2
G|--------------------------------------------15-17-17-18p17p15-17-| 
D|-18p17p15-18p17p15-18p17p15-18p17p15--15-17----------------------| 
A|-----------------------------------------------------------------| 
D|-----------------------------------------------------------------|

E|-----------------------------------------------------------------|
B|-----------------------------------------------------------------|
G|-------15-15h17h18p17p15-17--------15-15h17h18p17p15-17----------| 
D|-15-17-----------------------15-17-------------------------------| 
A|-----------------------------------------------------------------| 
D|-----------------------------------------------------------------|

E|-----------------------------------------------------------------|
B|-----------------------------------------------------------------|
G|-15h18p17p15-17--15h18p17p15-17--15-17-17-17-17-17-17-17\--------| 
D|-----------------------------------------------------------------| 
A|-----------------------------------------------------------------| 
D|-----------------------------------------------------------------|

Guitar 2 (Backing) (comes in half way through solo)
E|-------------------------|-------------------------|
B|-------------------------|-------------------------|     
G|-10-10-10-10-10-10-10-10-|-10-10-10-10-10-10-10-10-|
D|-10-10-10-10-10-10-10-10-|-10-10-10-10-10-10-10-10-|
A|-8--8--8--8--8--8--8--8--|-8--8--8--8--8--8--8--8--|
D|-------------------------|-------------------------|

E|-----------------|-----------------|
B|-----------------|-----------------|    
G|-6-6-6-6-6-6-6-6-|-6-6-6-6-6-6-6-6-|
D|-6-6-6-6-6-6-6-6-|-6-6-6-6-6-6-6-6-|
A|-4-4-4-4-4-4-4-4-|-4-4-4-4-4-4-4-4-|
D|-----------------|-----------------|

E|-----------------|-----------------|
B|-----------------|-----------------|    
G|-3-3-3-3-3-3-3-3-|-3-3-3-3-3-3-3-3-|
D|-3-3-3-3-3-3-3-3-|-3-3-3-3-3-3-3-3-|
A|-1-1-1-1-1-1-1-1-|-1-1-1-1-1-1-1-1-|
D|-----------------|-----------------|

E|-----------------|-----------------|
B|-----------------|-----------------|    
G|-5-5-5-5-5-5-5-5-|-5-5-5-5-5-5-5-5-|
D|-5-5-5-5-5-5-5-5-|-5-5-5-5-5-5-5-5-|
A|-3-3-3-3-3-3-3-3-|-3-3-3-3-3-3-3-3-|
D|-----------------|-----------------|


CHORUS(3) (Played Twice)

E|-------------------------|-------------------------|
B|-------------------------|-------------------------|     
G|-10-10-10-10-10-10-10-10-|-10-10-10-10-10-10-10-10-|
D|-10-10-10-10-10-10-10-10-|-10-10-10-10-10-10-10-10-|
A|-8--8--8--8--8--8--8--8--|-8--8--8--8--8--8--8--8--|
D|-------------------------|-------------------------|

E|-----------------|-----------------|
B|-----------------|-----------------|    
G|-6-6-6-6-6-6-6-6-|-6-6-6-6-6-6-6-6-|
D|-6-6-6-6-6-6-6-6-|-6-6-6-6-6-6-6-6-|
A|-4-4-4-4-4-4-4-4-|-4-4-4-4-4-4-4-4-|
D|-----------------|-----------------|

E|-----------------|-----------------|
B|-----------------|-----------------|    
G|-3-3-3-3-3-3-3-3-|-3-3-3-3-3-3-3-3-|
D|-3-3-3-3-3-3-3-3-|-3-3-3-3-3-3-3-3-|
A|-1-1-1-1-1-1-1-1-|-1-1-1-1-1-1-1-1-|
D|-----------------|-----------------|

E|-----------------|-----------------|
B|-----------------|-----------------|    
G|-5-5-5-5-5-5-5-5-|-5-5-5-5-5-5-5-5-|
D|-5-5-5-5-5-5-5-5-|-5-5-5-5-5-5-5-5-|
A|-3-3-3-3-3-3-3-3-|-3-3-3-3-3-3-3-3-|
D|-----------------|-----------------|


OUTRO (Chorus(2) Riff)

E|----------------|----------------|------------------|------------------|
B|-13--14--16--16-|-13--14--16--16-|--13--13--13--13--|--11--11--11--11--|  
G|-12--13--15--15-|-12--13--15--15-|--12--12--12--12--|--10--10--10--10--|
D|-10--11--13--13-|-10--11--13--13-|--10--10--10--10--|--8---8---8---8---|
A|----------------|----------------|------------------|------------------|
D|----------------|----------------|------------------|------------------|    

Added On December 16th, 2013

SHARE

Comments

blog comments powered by Disqus