Lis Pov Tabs

Ntuj No Tuaj Lawm

1 versions

TAB

            This is my first tab so yeah...
Please dont hate, if it sounds wrong leave comments and ill try to fix it (even 
though im pretty sure its 100% correct) 
http://www.youtube.com/watch?v=s8h3ATuu-1c
This isnt me but its where i learned it
Thanks! :)

Tuning: Half Step Down

Intro:

  C                   Am                 F
E|-----------------------0----------3--------------------------------|
B|-----------------1-----1----1—3/5----3/1---------------------------|
G|-----------0-0h2-------2--2--------------2-------------------------|
D|-----0-0h2-------------2-------------------3-----------------------|
A|---3-------------------0-------------------------------------------|
E|-3-----------------------------------------------------------------|

  Am                                             C 
E|-------------------------------------------------------------------|
B|-1---------1-------------------------------------------------------|
G|---2-0-0h2---2p0---0-0h2p0---0-0h2p0---0--------0------------------|
D|-----------------2---------2---------2----0-0h2---2---0------------|
A|----------------------------------------------------3---3-0-3------|
E|-------------------------------------------------------------------|

E|-------------------------------------------------------------------|
B|-------------------------------------------------------------------|
G|-----------0-------------------------------------------------------|
D|-------0h2---0-----------------------------------------------------|
A|---0-3---------3-0-3-----------------------------------------------|
E|-3-----------------------------------------------------------------|

Verse 1, 2, 3 and the solo are the same as the intro so pretty simple 

Chorus:

  C
E|-------------------------------------------------------------------|
B|-------------------------------------------------------------------|
G|-------------------------------------------------------------------|
D|-----0-0h2--0------------------------0-----0-----------------------|
A|---3----------3---0----0-----0---0-3---3-0---3-----3--------0-3----|
E|-3--------------3----0---3-0---3---------------3-3---3-3--3--------|

E|-------------------------------------------------------------------|
B|-------------------------------------------------------------------|
G|-----------------------0-------------------------------------------|
D|-0h2------0----------2---0-----------------------------------------|
A|------3-0---3----0-3-------3-0-3-----------------------------------|
E|---------------3---------------------------------------------------|

The order goes like this:
Intro
Verse 1
Verse 2
Chorus
Veres 3
Solo
Chorus 
Verse 3 
Thanks again!    

Added On December 16th, 2013

SHARE

Comments

blog comments powered by Disqus

ADVERTISEMENT