Lit Tabs

Im Not Sick But Im Not Well

1 versions

TAB

            Im Not Sick But Im Not Well Tab by Lit


I couldn't find any tabs for this song, so heres what i think it is. All this is is the
chords from the accoustic version of the song translated into power chords, so i think
it will sound the closest to the actual song. The words underneath show where you would
switch chords.

Intro (This is definately right)Make sure you mute the D string

e--------------------------------------------------------------------|
b--------------------------------------------------------------------|
g-----7---9---11---14---12---11----9---7---5---7---5---7---7---------|
d--------------------------------------------------------------------|
a-----5---7----9---12---10----9----7---5---3---9---3---9---5---------|
E -------------------------------------------------------------------|

Verse

e--------------------------------------------------------------------|
b--------------------------------------------------------------------|
g--------------------------------------------------------------------|
d--7-7-7-7-7-7-7-7-----------------5-5-5-5-5-5-5-5--7-7-7-7-7-7-7-7--|
a--5-5-5-5-5-5-5-5-7-7-7-7-7-7-7-7-3-3-3-3-3-3-3-3--5-5-5-5-5-5-5-5--|
E -----------------5-5-5-5-5-5-5-5-----------------------------------|

I saw visions......mirror..........clearer........in me

Chorus (Same thing)

e--------------------------------------------------------------------|
b--------------------------------------------------------------------|
g--------------------------------------------------------------------|
d--7-7-7-7-7-7-7-7-----------------5-5-5-5-5-5-5-5--7-7-7-7-7-7-7-7--|
a--5-5-5-5-5-5-5-5-7-7-7-7-7-7-7-7-3-3-3-3-3-3-3-3--5-5-5-5-5-5-5-5--|
E -----------------5-5-5-5-5-5-5-5-----------------------------------|

    I'm not sick...well............hot...............hell

Not sure if there's eveb guitar in the bridge-what I would do is take the notes you hear 
the song and turn them into either power chords or octaves, then that's it!    

Added On December 5th, 2013

SHARE

Comments

blog comments powered by Disqus

ADVERTISEMENT