Lupe Fiasco Tabs

Shining Down

1 versions

TAB

            Guitar RIff for practically the whole song
e-13p10----13p10----13p10----13p10----13p10----10-|
b-------10-------10-------10-------10-------10----|
g-------------------------------------------------|
d-------------------------------------------------|
a-------------------------------------------------|
e-------------------------------------------------|

e-12p8----12p8----12p8--10p7---10p7---7-10-|
b-------8-------8------------8------8------|
g------------------------------------------|
d------------------------------------------|
a------------------------------------------|
e------------------------------------------|

chorus piano thing
e-----17-17--15----|
b-15------------18-|
g------------------|
d------------------|
a------------------|
e------------------|    

Added On December 16th, 2013

SHARE

Comments

blog comments powered by Disqus

ADVERTISEMENT