Mago De Oz Tabs

La Santa Compaa

4 versions

TAB

            La Santa Compaa Tab by Mago De Oz


Mago de Oz - La Santa Compaña

Tab by Arturo Lorenzo (super_nardi@hotmail.com)


Intro / Riff:
		                        (x2)
e|---------------------------------------------------------------------------|
B|------------------------------------------|--------------------------------|
G|----2---------------------------2---------|---5---7------------------------|
D|----2---------------------------2---------|---5---7------------------------|
A|----0-0-2-3-2-0----0-2-3-2-0----0-2-3-2-0-|---3---5------------------------|
E|---------------------------------------------------------------------------|

		                        (x2)	
e|---------------------------------------------------------------------------|
B|------------------------------------------|--------------------------------|
G|----2---------------------------2---------|---5----------------------------|
D|----2---------------------------2---------|---5---5------------------------|
A|----0-0-2-3-2-0----0-2-3-2-0----0-2-3-2-0-|---3---5------------------------|
E|--------------------------------------------------3------------------------|


Verse 1:

(Rythm 2)
e|---------------------------------------------------------------------------|
B|---------------------------------------------------------------------------|
G|---2-----------2------------5--------2-2----------2------------------------|
D|---2-------5---2------------5----5---2-2----------0------------------------|
A|---0-------5---0------------3----5---0-0----------0------------------------|
E|-----------3---------------------3-----------------------------------------|

     Cuando al atardecer,
     los últimos rayos del Sol
     jugueteaban a esconder
     las luces y el color
     del bosque del perder,

Bridge
			     x2
e|-----------------------------|---------------------------------------------|
B|-----------------------------|---------------------------------------------|
G|---------------2-----(2)-----|---------------------------------------------|
D|---3-----5-----2-----(2)-(5)-|-------------5----3^-------------------------|
A|---3-----5-----0-----(0)-(5)-|-------3-------------5---9-------------------|
E|---1·····3···········----(3)-|---------------------------------------------|

     algo se empieza a mover,
     algo a lo lejos se ve.

Verse 2:

Intro /Riff
     La lluvia hacía del mar un rumor
     y el dios de las sombras se instalaba.
     la reina de la noche acudió,
     su majestad La Luna, bien acompañada,
     y una procesión de almas en pena.

Bridge:
			     x2	
e|-----------------------------|
B|-----------------------------|
G|---------------2-----(2)-----|
D|---3-----5-----2-----(2)-(5)-|
A|---3-----5-----0-----(0)-(5)-|
E|---1·····3···········----(3)-|

     Portadores de luz.
     Rosas en un ataúd.
 		   
CHORUS:
			     x2 * Second time play it all muted
e|-----------------------------|-----------|
B|-----------------------------|-----------|
G|---5---------2----5----7-----|--9--------|
D|---5----5----2----5----7-----|--9--------|
A|---3----5----0----3----5-----|--7.....---|
E|--------3--------------------|-----------|

     Oh...	

(Rythm 3) While the violin sounds:

e|---------------------------------------------------------------------------|
B|---------------------------------------------------------------------------|
G|---2------5-------------2--------------------------------------------------|
D|---2------5-----5-------2--5-----------------------------------------------|
A|---0------3-----5-------0--5-----------------------------------------------|
E|---·············3----------3-----------------------------------------------|    

Added On December 5th, 2013

SHARE

Comments

blog comments powered by Disqus

VERSIONS

ADVERTISEMENT