Manic Street Preachers Tabs

Lets Go To War

1 versions

TAB

            -------------------------------------------------------------------------------
                         Let's Go to War - Manic Street Preachers
-------------------------------------------------------------------------------

Dead simple song to play, with the main riff played during the intro and
choruses, and the chords during the verses, with the 3rd riff also played in
verse 3.

-------------------------------------------------------------------------------

Main riff:
  Am           Ab
e|------------------------------||
B|------------------------------||
G|------------------------------||
D|------------------------------||
A|-7-7-6-4------------3-4-6-4-6-||
E|---------7-5~---4-6-----------||

Bridge at end of verse 2:
e|------------||
B|------------||
G|------------||
D|------------||
A|---6---6-3~-||
E|-4---4------||

Riff during verse 3:
  Am            Ab
e|---------------------------||
B|---------5-------------4---||
G|-------5---5---------5---5-||
D|-----7-------------6-------||
A|---7-------------6---------||
E|-5-------------4-----------||


Please rate if you can!    

Added On October 6th, 2015

SHARE

Comments

blog comments powered by Disqus

ADVERTISEMENT