Maroon 5 Tabs

Wake Up Call

1 versions

TAB

            Intro:

e|--------------------------------------------------------------------------|
B|--------------------------------------------------------------------------|
G|--------------------------------------------------------------------------|
D|---------------------9b10------------------9------------------------------|
A|-----7-10-7-10-7-10--------7-10-7-10-7-10---------------------------------|
E|--------------------------------------------------------------------------|


Verse:   

   Em    Am    Bm
e|--7----5-----7---------|
B|--8----5-----7---------|
G|--9----5-----7---------|
D|--9----7-----9---------|
A|--7----7---------------|
E|-------5---------------|


Em
I didn’t hear what you were saying 

Em
I live on raw emotion baby

Am                              Bm
I answer questions, never maybe

Em
And I’m not kind if you betray me

Em
So who the hell are you to save me?

Am                            Bm
I never would’ve made it baby


Pre chorus:

    Em             
e|----------------------------------------------------|
B|----------------------------------------------------|
G|-----------9------------9---------------------------|
D|--------9-------------9----------9------------------|
A|--7-10-------7---7-10-----7--10---------------------|
E|----------------------------------------------------|


    B
e|-------------------------------------------------|
B|-------------------------------------------------|
G|-------------------------------------------------|
D|---------9---------------9-----------------------|
A|----6--9-----------6--9--------6-9---------------|
E|--7----------7---7----------7--------------------|

   Em
If you needed love  Well then ask for love

Could have given love Now I’m taking love

     B
And it’s not my fault Coz you both deserve

What’s coming now So don’t say a word


Chorus:

     Em   B
e|---7----7-----------------------|
B|---8----7-----------------------|
G|---9----8-----------------------|
D|---9----9-----------------------|
A|---7----9-----------------------|
E|--------7-----------------------|



     Em
Wake up call Caught you in the morning with another man in my bed

            B           
You don’t care about me anymore. Care about me?  I don’t think so

Em  
Six foot tall came without a warning so I had to shoot him dead

         B
He won’t come around here anymore, come around here?


I don’t feel so 


Verse 2:

   Em              Am    Em   
e|-----------------5-------------------------------------------|
B|-8------8--------5-----------8-------------------------------|
G|-9------9--------5-----------9-------------------------------|
D|-9---4--9--4-----7-----4-----9-------------------------------|
A|-7---5--7--5-----7-----5-----7-------------------------------|
E|-----7-----7-----------7-------------------------------------|

Em                                                                   
Would have bled to make you happy You didn't need to treat me that way

Am
And now you beat me at my own game

Em
And now I'm finally sleeping soundly

And your lover's screaming loudly

Am
I hear a sound and hit the ground


Break down:

e|-----------------------7----------------------------------------------------|
B|-----------------------7----------------------------------------------------|
G|--9-8-7-6---9-8-7-6----8----------------------------------------------------|
D|-----------------------9----------------------------------------------------|
A|--7-6-5-4---7-6-5-4----9----------------------------------------------------|
E|-----------------------7(x3)------------------------------------------------|


          B
I'm so sorry darling

B
Did I do the wrong thing? Oh, what was I thinking?
B
Is his heart still beating?


Ending:

e|--------------------------------------7-------------------------------------|
B|--------------------------------------7-------------------------------------|
G|---9--11--12---14---9--11--12--14-----8-------------------------------------|
D|--------------------------------------9-------------------------------------|
A|---7--9---10---12---7--9---10--12-----9-------------------------------------|
E|--------------------------------------7(x10)--------------------------------|    

Added On December 16th, 2013

SHARE

Comments

blog comments powered by Disqus

ADVERTISEMENT