Marta Sui Tubi Tabs

L Abbandono

1 versions

TAB

            Tablatura:"How to Play Marta sui Tubi"
Album:"C'è gente che deve dormire"
Traccia:"L'abbandono"

Tuning:

1-[E]
2-[B]
3-[G]
4-[D]
5-[A]
6-[D]


Riff principale:

1|------------------------------------------------------------|
2|---8-------------8-------------8-------------8--------------|
3|------------0-------------0-------------0-------------0-----|
4|--------8-------------8-------------8-------------8---------|
5|---6--6---6---6--6--6---6---6--6--6---6---6--6--6---6---6---|
6|------------------------------------------------------------|


1|------------------------------------------------------------|
2|---3-------------3-------------3-------------3--------------|
3|------------0-------------0-------------0-------------0-----|
4|--------3-------------3-------------3-------------3---------|
5|---1--1---1---1--1--1---1---1--1--1---1---1--1--1---1---1---|
6|------------------------------------------------------------|


Bridge:

1|----------------------------------------------|
2|---6--13--6-------------6--13--6--------------|
3|---0---------------0--------------------0-----|
4|---6-----------6--------------------6---------|
5|---4--11--4--4---4---4--4--11--4--4---4---4---|
6|----------------------------------------------|


Seconda chitarra:

1|-------------------------|
2|-------------------------|
3|---a7----a12-a7----a12---|
4|------a7--------a7-------|
5|-------------------------|
6|-------------------------|


Riff 2:

1|------------------------------------------------------------|
2|---8-------------8-------------8-------------8--------------|
3|------------0-------------0-------------0-------------0-----|
4|--------8-------------8-------------8-------------8---------|
5|---6--6---6---6------------------------------5--5---5---5---|
6|-----------------0--0---0---0--5--5---5---5-----------------|


Stay Tuned!
Cheers!!!

Youtube: http://www.youtube.com/user/HTPmartasuitubi
Facebook: https://www.facebook.com/HTPmartasuitubi    

Added On March 31st, 2014

SHARE

Comments

blog comments powered by Disqus

ADVERTISEMENT