Matt Costa Tabs

Wash Away

2 versions

TAB

            Wash away  - Matt Costa


Standard tuning

Capo on 2

All chords relative to capo

For speed of picking, which is important here to get that sound, play along to the song 
learning it.  Also make sure its finger picked with 3 fingers, not just 1 finger at a 
or itl be hard to get the speed


1. Float down stream, rivers of dreams
2. Heavens high, so you fly

Em

E -------------------|
B --0---0------------|
G -0---0-------------|       *Keep repeating until :
D 2---2--------------|
A--------------------|
E--------------------|


1. Float down stream
2. Catch your dreams

Am

E --------------------------------|
B --------------------------------|
G - 2--2--------------------------|
D  2--2-------                 *2-|
A-0--0----------------------------|
E---------------------------------|


1. catch your wings
2. In the sky

Em

E ----------------------|
B --0---0---------------|
G -0---0-----       * 3-|
D 2---2-----------------|
A-----------------------|
E-----------------------|

*Repeat from start with lyrics marked 2 then move on. this is the same pattern for all the verses


1.But the glaciers have frozen your feet
2.And so you watched me wash away

E ---------------------------|
B ---------------------------|
G -0--0----0--0--------------|
D ---2--------2---        *2-|
A----------------------------|
E 0-------0------------------|
                                             (slower bouncier picking pattern here than 
listen to it to get it)


1.I can't wait for eternity
2.But maybe we'll catch up someday, maybe wel...

E -------------------------------|
B -------------------------------|
G --0-- 0----0---0---------------|
D --- 2-------- 2---          *2-|
A--3--------3--------------------|
E -------------------------------|


2. catch up someday

Em

E -0---
B -0---
G -0---          Strum once
D -2---
A -2---
E -0---

Repeat the above for the next verse, and chorus, and then theres a bit of melody picking 
is some thing like :


E -0---------2----------3-----------------3-------------2---------- 0----|
B -0-------------------------------------------------------------------0-|
G -----------2----------0------------------0------------2----------------|
D -----------------------------------------------------------------------|
A -----------------------------------------------------------------------|
E -0---------2---------3------------------3------------2------------0----|


then back to start change lyrics.

If u not singing along u may want to add in a bass line or the melody line so ud do 
like this...


E  ----------------------------------|
B  --0---0--0----0---0--0--0---------|
G  -0---0--0----0---0--0--0----------|
D  2--2--2-----2--2--2--2------------|
A -----------------------------------|
E 0--2--3--------3--2--0-------------|
  Float Down Stream   Rivers Of Dream

ok thats it , enjoy    

Added On December 16th, 2013

SHARE

Comments

blog comments powered by Disqus

VERSIONS

ADVERTISEMENT