Maximum The Hormone Tabs

21st Century

1 versions

TAB

            Part I
E|-------|-----------------------------------|
B|-------|-----------------------------------|
G|-------|---5--------3--5--------3--5-------|
D|-5678--|---5--5--5--3--5--5--5--3--5-------|
A|-5678--|---3--5--5--1--3--5--5--1--3-------|
D|-5678--|------5--5--------5--5-------------| repeat for a few times

Part II
E|------|-----------------------|
B|------|-----------------------|
G|------|-----------------------|
D|-5678-|---567-567-567-567-57--|
A|-5678-|---567-567-567-567-57--|
D|-5678-|---567-567-567-567-57--|4x

Part III
|------|-----------------------|
|------|-----------------------|
|------|-----------------------|
|-5678-|---567-567-567-57-567--|
|-5678-|---567-567-567-57-567--|
|-5678-|---567-567-567-57-567--|

Part I

Part IV
E|--------------------------|
B|--8/9--9/11--11/13--13----|
G|--7/8--8/10--10/12--12----|
D|--5/6--6/8----8/10--10----|
A|--------------------------|
D|--------------------------|

Chourse: C5 A5 G5 G#5 Bb5 ( I'm to lazy, soon I'll tabs it. )

Part V
E|---------------------------------------------------------------|
B|---------------------------------------------------------------|
G|---------------------------------------------------------------|
D|--6-5-5--55-6-5--6-5-5--55-6-5--6-5-5--55-6-5--6-5-6-5-8-5-10--|
A|--6-5-5--55-6-5--6-5-5--55-6-5--6-5-5--55-6-5--6-5-6-5-8-5-10--|
D|--6-5-5--55-6-5--6-5-5--55-6-5--6-5-5--55-6-5--6-5-6-5-8-5-10--|2x

Back from the First Part

Just listen the music if you confused with my tabs.

May be it’s not true, but it sound great.

REMEMBER HEY HO LET’S GO!!!
Please sent me the lyric of this song at coepliez_cobain@yahoo.com    

Added On December 16th, 2013

SHARE

Comments

blog comments powered by Disqus

ADVERTISEMENT