McFly Tabs

One For The Radio

2 versions

TAB

            One For The Radio
McFly
Radio:ACTIVE

Tuning: Standart

INTRO
      G1 (Tom)            G2 (Danny)
e|------------------| |--------------|
B|--2~--------------| |--------------|
G|--2~--6--4--99999-| |-6-4----------|
D|--2~--6--4--99999-| |-6-4--2-------|
A|--0~--4--2--77777-| |-4-2--2-------|
E|------------------| |------0--x///-|


VERSE 1

G1 (Tom)
e|----------------------------------------| \
B|----------------------------------------| |
G|--9-9--9-9--6-6--4-4--------------------| | x2
D|--9-9--9-9--6-6--4-4--7-7--7-7--4-4--2--| |
A|--7-7--6-6--4-4--2-2--7-7--7-7--4-4--2--| |
E|----------------------5-5--4-4--2-2--0--| /

G2 (Danny)
e|--------------| (if you're not sure how to do this, 
B|--------------|  watch what Danny does in this video:
G|--------------|  uk.youtube.com/watch?v=AXVBDpF8YDQ)
D|--------------|  
A|--------------|
E|--x//////////-| 


BRIDGE
                    2x
                 /------\
      G1 (Tom)              G2 (Danny)
e|-----------------| |--------------------| 
B|-----------------| |--------------------|
G|-\9-9-------4-4--| |---------------4-4--| 
D|-\9-9--6-7--4-4--| |--\2-2---6-7---4-4--|
A|-\7-7--6-7--2-2--| |--\2-2---6-7---2-2--|
E|-------4-5-------| |--\0-0---4-5--------|

e|--------------------------------------|
B|--------------------------------------|
G|--6-6--4-4----------------------------|
D|--6-6--4-4--7-6-6-6--4-x-x-x-4-x-x-x--|
A|--4-4--2-2--7-6-6-6--4-x-x-x-4-x-x-x--|
E|------------5-5-4-4--2-x-x-x-2-x-x-x--|
   
e|--------------------------------------|
B|--------------------------------------|
G|-------------------4-x-x-x-4-x-x-x-4--|
D|--7-x-x-x-7-x-x-x--4-x-x-x-4-x-x-x-4--|
A|--7-x-x-x-7-x-x-x--2-x-x-x-2-x-x-x-2--|
E|--5-x-x-x-5-x-x-x---------------------|


CHORUS

e|---------------------------------------------------|
B|---------------------------------------------------|
G|-------------4-4-4-4--9\4-------------6-x-x-x-6/9--|
D|--6/7-7-7-7--4-4-4-4--9\4----7-7-7-7--6-x-x-x-6/9--|
A|--6/7-7-7-7--2-2-2-2--7\2----7-7-7-7--4-x-x-x-4/7--|
E|--4/5-5-5-5------------------5-5-5-5---------------|

e|-------------------------------------------|
B|-------------------------------------------|
G|-----------9-9-6-----------4-x-x-x--99999--| -> G2 (Danny) finishes 
D|--7-7-7-7--9-9-6--4-x-x-x--4-x-x-x--99999--|    this on 022xxx and
A|--7-7-7-7--7-6-4--4-x-x-x--2-x-x-x--77777--|    then starts the mute
E|--5-5-5-5---------2-x-x-x------------------|    sliding again


VERSE 1 x1
BRIDGE x1
CHORUS x1


INTERLUDE (We don't, we don't care)

   G1 (Tom)           G2 (Danny)
e|--00000--| |-----------------------|
B|--00000--| |-----------------------|
G|--00000--| |--99999/////////////---|
D|--00000--| |--99999/////////////---|
A|--00000--| |--77777/////////////---|
E|--00000--| |-----------------------|
              just keep sliding until
              the we don't care ends
              and finish on x799xx


BREAKDOWN

               G1 or G2, you choose.

e|--------------------|     |--12--11--9---5---|
B|--------------------|     |--12--11--9---5---|
G|--9~---9~---6~------| 2x  |--13--13--9---6---|
D|--9~---9~---6~--7~--|     |--14--14--11--7---|
A|--7~---6~---4~--7~--|     |--14--14--11--7---|
E|----------------5~--|     |--12--11--9---5---|
                            that background picking 
                             (mute on some parts 
                                 if you want)
                           
CHORUS

e|-------------------------------------|
B|-------------------------------------|
G|--------9\4-------------6-x-x-x-6/9--|
D|--7\----9\4----7-7-7-7--6-x-x-x-6/9--|
A|--7\----7\2----7-7-7-7--4-x-x-x-4/7--|
E|--5\-----------5-5-5-5---------------|

e|-----------------------------------------------|
B|-----------------------------------------------|
G|-----------9-9-6-----------4-x-x-x--------9\4--| 
D|--7-7-7-7--9-9-6--4-x-x-x--4-x-x-x--2-x-x-9\4--|    
A|--7-7-7-7--7-6-4--4-x-x-x--2-x-x-x--2-x-x-7\2--|    
E|--5-5-5-5---------2-x-x-x-----------0-x-x------|    

e|-------------------------------------------------|
B|-------------------------------------------------|
G|-----------4-4-4-4--9\4-------------6-x-x-x-6/9--|
D|--7-7-7-7--4-4-4-4--9\4----7-7-7-7--6-x-x-x-6/9--|
A|--7-7-7-7--2-2-2-2--7\2----7-7-7-7--4-x-x-x-4/7--|
E|--5-5-5-5------------------5-5-5-5---------------|

e|------------------------------------|
B|------------------------------------|
G|-----------9-9-6-----------4-x-x-x--| 
D|--7-7-7-7--9-9-6--4-x-x-x--4-x-x-x--|   
A|--7-7-7-7--7-6-4--4-x-x-x--2-x-x-x--|   
E|--5-5-5-5---------2-x-x-x-----------|    

e|-----------------------------------------| 
B|-----------------------------------------| 
G|--9-9--9-9--6-6--4-4---------------------| 
D|--9-9--9-9--6-6--4-4--7-7--7-7--4-4--2-2-| 
A|--7-7--6-6--4-4--2-2--7-7--7-7--4-4--2-2-| 
E|----------------------5-5--4-4--2-2--0-0-| 

e|--------------------------------------------| 
B|--------------------------------------------| 
G|--9-9--9-9--6-6--4-4------------------------| 
D|--9-9--9-9--6-6--4-4--7-7--7-7--4-4--2-2-2--| 
A|--7-7--6-6--4-4--2-2--7-7--7-7--4-4--2-2-2--| 
E|----------------------5-5--4-4--2-2--0-0-0--| 

/ - slide
x - mute 
~ - let ring    

Added On December 16th, 2013

SHARE

Comments

blog comments powered by Disqus

VERSIONS

ADVERTISEMENT