TAB

            Dannys Song Chords by Me First And The Gimme Gimmes

Intro:
e|-----3-----3-----3-----3-----3-----3-----3-----3-3----|
B|-----0-----0-----0-----0-----0-----0-----0-----0-0----|
G|-----0-----0-----0-----0-----0-----0-----0-----0-0----|
D|-----0-----0-----0-----0-----0-----0-----0-----0-0----|
A|-----2-----2-----2-----2-----2-----2-----2-----2-2----|
E|-3-3-3-3-3-3-3-3-3-3-3-3-3-3-3-3-3-3-3-3-3-3-3-3-3----|

Verse:
 G
G
e |---|---|-x-|---|---|
B |---|---|---|---|---|
G |---|---|---|---|---|
D |---|---|---|---|---|
A |---|-x-|---|---|---|
E |---|---|-x-|---|---|
F
F
e |-x-|---|---|---|---|
B |-x-|---|---|---|---|
G |---|-x-|---|---|---|
D |---|---|-x-|---|---|
A |---|---|-x-|---|---|
E |-x-|---|---|---|---|
Em
Em
e |---|---|---|---|---|
B |---|---|---|---|---|
G |---|---|---|---|---|
D |---|-x-|---|---|---|
A |---|-x-|---|---|---|
E |---|---|---|---|---|
People smile and tell me I'm the lucky one A7
A7
e |---|---|---|---|---|
B |---|-x-|---|---|---|
G |---|---|---|---|---|
D |---|-x-|---|---|---|
A |---|---|---|---|---|
E |---|---|---|---|---|
That we've just begun D
D
e |---|-x-|---|---|---|
B |---|---|-x-|---|---|
G |---|-x-|---|---|---|
D |---|---|---|---|---|
A |---|---|---|---|---|
E |---|---|---|---|---|
Think I'm gonna' have a son G
G
e |---|---|-x-|---|---|
B |---|---|---|---|---|
G |---|---|---|---|---|
D |---|---|---|---|---|
A |---|-x-|---|---|---|
E |---|---|-x-|---|---|
F
F
e |-x-|---|---|---|---|
B |-x-|---|---|---|---|
G |---|-x-|---|---|---|
D |---|---|-x-|---|---|
A |---|---|-x-|---|---|
E |-x-|---|---|---|---|
Em
Em
e |---|---|---|---|---|
B |---|---|---|---|---|
G |---|---|---|---|---|
D |---|-x-|---|---|---|
A |---|-x-|---|---|---|
E |---|---|---|---|---|
People be like she and me as free as a dove A7
A7
e |---|---|---|---|---|
B |---|-x-|---|---|---|
G |---|---|---|---|---|
D |---|-x-|---|---|---|
A |---|---|---|---|---|
E |---|---|---|---|---|
Concieved in love D
D
e |---|-x-|---|---|---|
B |---|---|-x-|---|---|
G |---|-x-|---|---|---|
D |---|---|---|---|---|
A |---|---|---|---|---|
E |---|---|---|---|---|
Sun's gonna shine above Chorus: C
C
e |---|---|-x-|---|---|
B |-x-|---|---|---|---|
G |---|---|---|---|---|
D |---|-x-|---|---|---|
A |---|---|-x-|---|---|
E |---|---|---|---|---|
D
D
e |---|-x-|---|---|---|
B |---|---|-x-|---|---|
G |---|-x-|---|---|---|
D |---|---|---|---|---|
A |---|---|---|---|---|
E |---|---|---|---|---|
Even though we ain't got money G
G
e |---|---|-x-|---|---|
B |---|---|---|---|---|
G |---|---|---|---|---|
D |---|---|---|---|---|
A |---|-x-|---|---|---|
E |---|---|-x-|---|---|
D
D
e |---|-x-|---|---|---|
B |---|---|-x-|---|---|
G |---|-x-|---|---|---|
D |---|---|---|---|---|
A |---|---|---|---|---|
E |---|---|---|---|---|
Em
Em
e |---|---|---|---|---|
B |---|---|---|---|---|
G |---|---|---|---|---|
D |---|-x-|---|---|---|
A |---|-x-|---|---|---|
E |---|---|---|---|---|
I'm so in love with ya honey C
C
e |---|---|-x-|---|---|
B |-x-|---|---|---|---|
G |---|---|---|---|---|
D |---|-x-|---|---|---|
A |---|---|-x-|---|---|
E |---|---|---|---|---|
D
D
e |---|-x-|---|---|---|
B |---|---|-x-|---|---|
G |---|-x-|---|---|---|
D |---|---|---|---|---|
A |---|---|---|---|---|
E |---|---|---|---|---|
G
G
e |---|---|-x-|---|---|
B |---|---|---|---|---|
G |---|---|---|---|---|
D |---|---|---|---|---|
A |---|-x-|---|---|---|
E |---|---|-x-|---|---|
D
D
e |---|-x-|---|---|---|
B |---|---|-x-|---|---|
G |---|-x-|---|---|---|
D |---|---|---|---|---|
A |---|---|---|---|---|
E |---|---|---|---|---|
Em
Em
e |---|---|---|---|---|
B |---|---|---|---|---|
G |---|---|---|---|---|
D |---|-x-|---|---|---|
A |---|-x-|---|---|---|
E |---|---|---|---|---|
And everything'll bring a chain of love C
C
e |---|---|-x-|---|---|
B |-x-|---|---|---|---|
G |---|---|---|---|---|
D |---|-x-|---|---|---|
A |---|---|-x-|---|---|
E |---|---|---|---|---|
D
D
e |---|-x-|---|---|---|
B |---|---|-x-|---|---|
G |---|-x-|---|---|---|
D |---|---|---|---|---|
A |---|---|---|---|---|
E |---|---|---|---|---|
In the mornin' when I rise G
G
e |---|---|-x-|---|---|
B |---|---|---|---|---|
G |---|---|---|---|---|
D |---|---|---|---|---|
A |---|-x-|---|---|---|
E |---|---|-x-|---|---|
D
D
e |---|-x-|---|---|---|
B |---|---|-x-|---|---|
G |---|-x-|---|---|---|
D |---|---|---|---|---|
A |---|---|---|---|---|
E |---|---|---|---|---|
Dm
Dm
e |-x-|---|---|---|---|
B |---|---|-x-|---|---|
G |---|-x-|---|---|---|
D |---|---|---|---|---|
A |---|---|---|---|---|
E |---|---|---|---|---|
You bring a tear of joy to my eye C
C
e |---|---|-x-|---|---|
B |-x-|---|---|---|---|
G |---|---|---|---|---|
D |---|-x-|---|---|---|
A |---|---|-x-|---|---|
E |---|---|---|---|---|
D
D
e |---|-x-|---|---|---|
B |---|---|-x-|---|---|
G |---|-x-|---|---|---|
D |---|---|---|---|---|
A |---|---|---|---|---|
E |---|---|---|---|---|
G
G
e |---|---|-x-|---|---|
B |---|---|---|---|---|
G |---|---|---|---|---|
D |---|---|---|---|---|
A |---|-x-|---|---|---|
E |---|---|-x-|---|---|
D
D
e |---|-x-|---|---|---|
B |---|---|-x-|---|---|
G |---|-x-|---|---|---|
D |---|---|---|---|---|
A |---|---|---|---|---|
E |---|---|---|---|---|
Em
Em
e |---|---|---|---|---|
B |---|---|---|---|---|
G |---|---|---|---|---|
D |---|-x-|---|---|---|
A |---|-x-|---|---|---|
E |---|---|---|---|---|
Tell me everythings gonna' be alright. Verse is same for all... I just don't feel like posting all the lyrics. Corrections? jaybar36@hotmail.com

Added On December 5th, 2013

SHARE

Comments

blog comments powered by Disqus

VERSIONS

ADVERTISEMENT