Metric Tabs

Too Little Too Late

2 versions

TAB

            Too Little Too Late Tab by Metric


#-------------------------------PLEASE NOTE--------------------------------#
#This file is the author's own work and represents their interpretation    #
#of the song. You may only use this file for private study, scholarship,   #
#or research.                                                              #
#--------------------------------------------------------------------------#

Author/Artist: Metric
Title: Too Little Too Late
Album: Live It Out
Transcribed by: Mark K
Email: mark AT iownyou DOT org

Standard Tuning

Am  - (5 7 7 5 5 5)
C   - (8 10 10 9 8 8) OR (X 3 2 0 1 0)
F   - (1 3 3 2 1 1)
Dm  - (X 5 7 7 6 5) OR (X X 0 2 3 1)
Bb  - (6 8 8 7 6 6)

Note: When playing the chords during the verse, i find using (8 10 10 9 8 8)
	for the first C sounds more accurate than standard open C, but playing
	standard on the second one works.

-----
Intro
-----

e-------------------------------------------------|
B-------------------------------------------------|
G-------------------------------------------------|
D--------------------------------5/7-7-5-5/3-3-0--|
A--3-3/5-5-7-7-8/--3-3-3-3-3-3-3------------------|
E-------------------------------------------------|

e-------------------------------------------------|
B-------------------------------------------------|
G-------------------------------------------------|
D---0-3-0-0-0-0-3-5-5-7-7-0-0-6-6-5---------------|
A-3---------------------------------3-3-3-3-3-3---|
E-------------------------------------------------|

e--------------------------------------------------|
B--------------------------------------------------|
G--5-5-3-3-2-2-------------------------------------|
D--------------3-3-0-0-0-0-0-0-0-------------------|
A--------------------------------3-3/5-5-7-7-8/----|
E--------------------------------------------------|

e-------------------------------------------------|
B-------------------------------------------------|
G-------------------------------------------------|
D-----5-----------5/7-7-5-5/3-3-0---0-3-0-0-0-0---|
A-3-3---3-3-3-3-3-----------------3---------------|
E-------------------------------------------------|

e-------------------------------------------------|
B-------------------------------------------------|
G---------------------------------5-5-3-3-2-2-----|
D-3-5-5-7-7-0-0-6-6-5-------------------------3-3-|
A---------------------3-3-3-3-3-3-----------------|
E-------------------------------------------------|

e-------------------------------------------------|
B-------------------------------------------------|
G-------------------------------------------------|
D-0-0-0-0-0-0-0-----------------------------------|
A---------------3-3/5-5-7-7-8/--------------------|
E-------------------------------------------------|


-----
Verse
-----

Am      C               F              C
You can burn your paper fingers in the ashtray

Dm                             C
    Place your swollen lips on mine

Am      C                F                   C
You can shave your heavy head in my carpeted hallway

Dm
Sure for the first time you're wearing the right clothes

------
Chorus
------

These chords are played underneath the lead

Bb C Dm

e------------------------------------------------- |
B------------------------------------------------- |
G------7-------7--5-5-10-10-10-10-9-9------------- |
D--8-8---8-8-8------------------------------------ |
A------------------------------------------------- |
E------------------------------------------------- |
                                                   |
e------------------------------------------------- |
B------------------------------------------------- |
G-7-7-10-7-7-7-10-7-7-7-10-10-10-9-9-------------- |
D------------------------------------------------- |
A------------------------------------------------- |
E------------------------------------------------- |-> x2

e-------------------------------------------------|
B-------------------------------------------------|
G------7-------7--5-5-10-10-10-10-9-9-------------|
D--8-8---8-8-8------------------------------------|
A-------------------------------------------------|
E-------------------------------------------------|

e-----------------------------------------------6-|
B-----------------------------------------------6-|
G-7-7-10-7-7-7-10-7-7-7-10-10-------10--7-------7-|
D-----------------------------10-10-------------8-|
A-----------------------------------------------8-|
E-----------------------------------------------6-|

The structure of the complete song is:

INTRO
VERSE
CHORUS
INTRO
VERSE
CHORUS
INTRO -> It skips a lot of notes, just listen to figure it out.

I'm pretty sure on the chords, but I could be way off.  Please email
me any corrections or comments.    

Added On December 5th, 2013

SHARE

Comments

blog comments powered by Disqus

VERSIONS

ADVERTISEMENT