TAB

            [Intro]
e|-----------------------------7--|-----------------------------------|
B|------10---8p7----10-10---8-----|-8-10-8---7------------------------|
G|-7-9-----------9----------------|-------------9--7----7--7h9----9---|
D|--------------------------------|-----------------------------------|
A|--------------------------------|-----------------------------------|
E|--------------------------------|-----------------------------------|

e|-------------------------------------------------|
B|---8~--8p7------------8~----8---7------7---------|
G|-----------9--7---9----------------9------9----7-|
D|-------------------------------------------------|
A|-------------------------------------------------|
E|-------------------------------------------------|


************************************

| h   hammer-on
| p   pull-off

************************************    

Added On July 20th, 2017

SHARE

Comments

blog comments powered by Disqus

ADVERTISEMENT