Misc Traditional Tabs

Easy Star Spangled Banner

1 versions

TAB

            This is my first tab, so be kind :D
Anyways, I tabbed this out for beginners. Intermediate players can add a bit of pizzaz 
(bends, etc.) to make it a little more fun.

Questions/Comments: nkronsch@yahoo.com

p = pull-off

E ---------------------------------------------------------------------------|
B ---------------------------------------------------------------------------|
G -------------------2-0-----------------2-0---------------------------------|
D ---------------3-------3-------------------3-2--0-2-3-3--------------------|
A ---0-----0-3-------------0--1-3---3-3--------------------3-0---------------|
E -----3-1-----------------------------------------------------1-------------|
  O', say can you see, by the dawn's early light, what so proudly we hail, at   the 
twilight's last gleaming...

E ---------------------------------------------------------------------------|
B ---------------------------------------------------------------------------|
G -------------------2-0-----------------2-0---------------------------------|
D ---------------3-------3-------------------3-2--0-2-3-3--------------------|
A ---0-----0-3-------------0--1-3---3-3--------------------3-0---------------|
E -----3-1-----------------------------------------------------1-------------|
   With broad stripes and bright stars, through the perilous fight, and the ramparts we 
watched, were so gallantly streaming...

E --------------------------------------------------------------------------|
B -------------1-1----------------------------------------------------------|
G ---2---2-2-3--------3-2-0-2-3-3----3--2-0---------------------------------|
D ------------------------------------------3-2--0-2-3----------------------|
A -----------------------------------------------------0-2-3----------------|
E --------------------------------------------------------------------------|
  And the rocket's red glare, the bombs bursting in air, gave proof through the night, 
that our flag was still there...

E -
B ---------------------------------------------1---------------------------|
G -------------------2-3p2-0-------------0-2-3-----0-2--3--0---------------|
D -----3-3-3p2-0-0-0---------3---2-----3---------3-------------3-----------|
A ---3-----------------------------3-3-------------------------------------|
E -------------------------------------------------------------------------|
  O' say does that Star Spangled banner yet wave, O'er the land of the free, and the 
home of the brave!    

Added On December 16th, 2013

SHARE

Comments

blog comments powered by Disqus

ADVERTISEMENT