Misc Traditional Tabs

London Bridge

1 versions

TAB

            -------------------------------------------------------------------------------
                       LONDON BRIDGE - Traditional song
-------------------------------------------------------------------------------
Tabbed by: Luciano Irigoyen
E-mail: irigoyen444@gmail.com

Tuning: Standard

This is Guitarmaster94's tab with added notes and fixed duration. The one above is for 
the English version of the song, and the one below is for the Spanish version.

English:

|-------0-----------------------------------------0--------------------------|
|-----3---3-1-0-1-3-------0-1----0-1-3----------3---3-1-0-1-3------3-0-------|
|-----------------------2---------------------------------------2------0-----|
|----------------------------------------------------------------------------|
|----------------------------------------------------------------------------|
|----------------------------------------------------------------------------|


Spanish:


|-------0-----------------------------------------0--------------------------|
|0--3-3---3-1-0-1-3-------0-1----0-1-3-----0--3-3---3-1-0-1-3------3-0-------|
|-----------------------2---------------------------------------2------0-----|
|----------------------------------------------------------------------------|
|----------------------------------------------------------------------------|
|----------------------------------------------------------------------------|    

Added On December 16th, 2013

SHARE

Comments

blog comments powered by Disqus

ADVERTISEMENT