Misc Traditional Tabs

Oh Canada

2 versions

TAB

            / or \ = slide
h = hammer on
p = pull off
~ = vibrato
                   
e----------|---------------|----------------------------|   
B----------|---------------|----------------------------|   
G----------|---------------|----------------------------|   
D-2~-5-5---|-0-2-3-5-5/7---|-2--4-4-5~----5/7-9-9-7-7-5~|   
A--------3~|-------------5~|----------------------------|   
E----------|---------------|----------------------------|
                (slur the 5/7)   (slur the 5/7)

e-------------------------------------------------|
B-------------------------------------------------|
G-------------------------------------------------|
D--0-2-3~--2-0----2-3-5~--3-2~--2~-0--5-5\4\2/4-5~|
A-------------------------------------------------|
E-------------------------------------------------|
                                         (slur)

e------------|--------------|
B------------|--------------|
G------------|--------------|
D--2~-5-5----|3~3--3/7~7----|
A---------3~-|-----------5~-|
E------------|--------------|    
                (Slur 3/7)   

e----------------------------|
B----------------------------|
G----------------------------|
D-2-4-4-5---3-2-0----0---2~--|
A----------------3~----------|
E----------------------------|


Traditional Ending
e-----------------------------------|
B-----------------------------------|
G-----------------------------------|
D--5~--5/10~-10-7~--3-2-0-5~--------|
A----------------------------2~--3~~|
E-----------------------------------|
    (slur 5/10)

e---------------------------------------|
B---------------------------------------|
G---------------------------------------|
D--5~--5/10~-10-7~--3-2-0-5~---9~--10~~-|
A---------------------------------------|
E---------------------------------------|
     (slur 5/10)    

Added On December 16th, 2013

SHARE

Comments

blog comments powered by Disqus

VERSIONS

ADVERTISEMENT