Misc Traditional Tabs

Taiwanese National Anthem

1 versions

TAB

            H    Q  Q    H.      Q    H.      Q    H.      Q
|------------|------------|------------|-------------|
|------------|---------0--|-0-------3--|-3-------0---|
|---------0--|-0----------|------------|-------------|
|------------|------------|------------|-------------|
|------------|------------|------------|-------------|
|------------|------------|------------|-------------|


  H.      Q    H.      E E   H.      Q    H.      E E
|------------|-3-------0---|-0----------|-0-----------|
|---------0--|-----------3-|---------0--|---------3-2-|
|-2----------|-------------|------------|-------------|
|------------|-------------|------------|-------------|
|------------|-------------|------------|-------------|
|------------|-------------|------------|-------------|


  H    Q  E E   E E E E E E E E   E E E E E E Q    Q  Q  Q  Q
|-------------|-----0-------3---|-2---5---3---0--|-0--3--0-----|
|-3-------3---|-1-------3-------|----------------|----------3--|
|-------------|-----------------|----------------|-------------|
|-------------|-----------------|----------------|-------------|
|-------------|-----------------|----------------|-------------|
|-------------|-----------------|----------------|-------------|


  Q  Q  Q  Q    H.      E E   H.      Q    H.      E E
|-------------|---------0---|---------3--|-3-------0---|
|-0--------3--|-3---------3-|-3----------|-----------3-|
|----2--0-----|-------------|------------|-------------|
|-------------|-------------|------------|-------------|
|-------------|-------------|------------|-------------|
|-------------|-------------|------------|-------------|


  H.      Q    H.      E. S   H.      Q    H.      E. S
|------------|-7-------5--7-|-5----------|-5-------5--7-|
|-3-------3--|--------------|---------3--|--------------|
|------------|--------------|------------|--------------|
|------------|--------------|------------|--------------|
|------------|--------------|------------|--------------|
|------------|--------------|------------|--------------|


  H.      Q
|-3------------*|
|--------------*|
|--------------*|
|--------------*|
|--------------*|    

Added On December 16th, 2013

SHARE

Comments

blog comments powered by Disqus

ADVERTISEMENT