Misc Unsigned Bands Tabs

Incura - Id Give Anything

1 versions

TAB

            Tab by Catlin.
To make this easier on my self I'm only gonna do the bare minimum.

the song mostly fits into Dmaj
so for the motif bits Gatlin plays over the rhythm
just listen to and play in the scale
or make it up
either way should be fine as long as it's in the same key

Intro
--------------------------------|--------------------------------|
--------------------------------|--------------------------------|
------------(9)-------(9)-------|------------(9)-------(9)-------|
-------(7)-------(7)-------(7)--|-------(7)-------(7)-------(7)--|X2
--(5)---------------------------|--(5)---------------------------|
--------------------------------|--------------------------------|

--------------------------------|--------------------------------|
--------------------------------|--------------------------------|
--------------------------------|--------------------------------|
------------(6)-------(6)-------|------------(6)-------(6)-------|
-------(4)-------(4)-------(4)--|-------(4)-------(4)-------(4)--|
--(4)---------------------------|--(4)---------------------------|

--------------------------------|--------------------------------|
--------------------------------|--------------------------------|
--------------------------------|--------------------------------|
------------(4)-------(4)-------|------------(4)-------(4)-------|
-------(4)-------(4)-------(4)--|-------(4)-------(4)-------(4)--|
--(4)---------------------------|--(4)---------------------------|

and repeat for intro bit
the transition bit is these chords again played at a high distortion with a change to 
second chord as shown

------------------------------------------------|
------------------------------------------------|
---------(9)---(9)------(9)-------(9)-(9)-(9)---|
---------(7)---(7)------(7)-------(7)-(7)-(7)---|
--(5)-(5)---(5)---(5)-(5)--(5)-(5)--(5)-(5)-----|
------------------------------------------------|


--------------------------------|
--------------------------------|
--------------------------------|
--(6)------------(7)------------|Kinda the same rhythm as the first
--(4)------------(4)------------|you figure it out
--(4)------------(4)------------|

just listen to the song to get the rhythm

Chorus
--------------------------------|--------------------------------|
--------------------------------|--------------------------------|
--------------------------------|--------------------------------|
--0-----------------------------|---4----------------------------|
--0-----------------------------|---4----------------------------|
--0-----------------------------|---4----------------------------|

I don't fell like tabbing out the breakdown and such but... I have faith you can figure 
out

as for the rest of thew song, it's kinda the same and repeated    

Added On December 16th, 2013

SHARE

Comments

blog comments powered by Disqus

ADVERTISEMENT