Misc Unsigned Bands Tabs

Lions - Metal Heavy Lady

2 versions

TAB

            Song: Metal Heavy Lady
Band: Lions
Tuning: Standard

Verses:
|---------------------------------|
|---------------------------------|
|---------------------------------|
|---------------------------------|
|--0---0-3-0-0-2-0-0-1-0-0-----2--|
|--------------------------4------|

Chorus:                            
|-------------------------------------------------------------------|
|-------------------------------------------------------------------|
|o-4---4-4-4-4-4-4-4-4-------------4---4-4-4-4-4-4-4-4-0--2-5-7-7^--|
|o-2---2-2-2-2-2-2-2-2-0-2-0-2-2-0-2---2-2-2-2-2-2-2-2--------------|
|-------------------------------------------------------------------|
|-------------------------------------------------------------------|

Bridge:
|-----------------------------------|
|-----------------------------------|
|-----------------------------------|
|-----------------------------------|
|--------7-----5-----5-----5---5-7--|
|--0---0---0-0---0-0---0-0---0------|

Song Order:
Verse
Chorus
Verse
Chorus
Bridge
Solo (Not Transcribed)
Verse
Chorus    

Added On December 16th, 2013

SHARE

Comments

blog comments powered by Disqus

VERSIONS

ADVERTISEMENT