Misc Your Songs Tabs

Tyler Lininger - Untitled 1

1 versions

TAB

            Time Signature 12/8;2/4, 9/8;7/8

[Intro] 
12/8                    2/4
e|--------------------|---------|--------------------|---------|--------------------|---------|
B|--------------------|---------|--------------------|---------|--------------------|---------|
G|--------------------|---------|--------------------|---------|--------------------|---------|
D|--------------------|---------|--------------------|---------|--------------------|---------|
A|--------------------|-------3-|--------------------|-------3-|--------------------|-------3-|
E|-0-0--0-0--0-0--0-0-|-0-3-5---|-0-0--0-0--0-0--0-0-|-0-3-5---|-0-0--0-0--0-0--0-0-|-0-3-5---|
Dont let notes ring ^

e|--------------------|---------|
B|--------------------|---------|
G|--------------------|---------|
D|--------------------|---------|
A|--------------------|---------|
E|-0-0--0-0--0-0--0-0-|-0-3-5-3-|

[Verse 1]
e|--------------------|---------|--------------------|---------|--------------------|---------|
B|--------------------|---------|--------------------|---------|--------------------|---------|
G|--------------------|---------|--------------------|---------|--------------------|---------|
D|--------------------|---------|--------------------|---------|--------------------|---------|
A|--------------------|-------3-|--------------------|-------3-|--------------------|-------3-|
E|-0-0--0-0--0-0--0-0-|-0-3-5---|-0-0--0-0--0-0--0-0-|-0-3-5---|-0-0--0-0--0-0--0-0-|-0-3-5---|

e|--------------------|---------|
B|--------------------|---------|
G|--------------------|---------|
D|--------------------|---------|
A|--------------------|---------|
E|-0-0--0-0--0-0--0-0-|-0-3-5-3-|

e|--------------------|---------|--------------------|---------|
B|--------------------|---------|--------------------|---------|
G|--------------------|---------|--------------------|---------|
D|--------------------|---------|--------------------|---------|
A|--------------------|-------5-|--------------------|---------|
E|-5-5--5-5--5-5--5-5-|-5-7-8---|-5-5--5-5--5-5--5-5-|-5-7-8-7-|


e|--------------------|---------|--------------------|---------|
B|--------------------|---------|--------------------|---------|
G|--------------------|---------|--------------------|---------|
D|--------------------|---------|--------------------|---------|
A|--------------------|-------3-|--------------------|-5p3-----|
E|-0-0--0-0--0-0--0-0-|-0-3-5---|-0-0--0-0--0-0--0-0-|-----5p3-|

[Chorus]
Let ring
  9/8                   7/8 
e|---------------|-----------------|---------------|-----------------|
B|---------------|-----------------|---------------|-----------------|
G|---------------|-10-10-9-9-7-7-5-|---------------|-7-7-5-5-10-10-9-|
D|-7/8--8-8--8-8-|-x--x--x-x-x-x-x-|-3/5--5-5--5-5-|-x-x-x-x-x--x--x-|
A|-7/8--8-8--8-8-|-8--8--7-7-5-5-3-|-3/5--5-5--5-5-|-5-5-3-3-8--8--7-|
E|-7/8--8-8--8-8-|-----------------|-3/5--5-5--5-5-|-----------------|

e|---------------|-----------------|---------------|-----------------|
B|---------------|-----------------|---------------|-----------------|
G|---------------|-10-10-9-9-7-7-5-|---------------|-7-7-5-5-10-10-9-|
D|-7/8--8-8--8-8-|-x--x--x-x-x-x-x-|-3/5--5-5--5-5-|-x-x-x-x-x--x--x-|
A|-7/8--8-8--8-8-|-8--8--7-7-5-5-3-|-3/5--5-5--5-5-|-5-5-3-3-8--8--7-|
E|-7/8--8-8--8-8-|-----------------|-3/5--5-5--5-5-|-----------------|

e|---------------|-----------------|----------------|-----------------|
B|---------------|-----------------|----------------|-----------------|
G|---------------|-10-10-9-9-7-7-5-|----------------|-7-7-5-5-10-10-9-|
D|-7/8--8-8--8-8-|-x--x--x-x-x-x-x-|-3/5--5-5--5-5--|-x-x-x-x-x--x--x-|
A|-7/8--8-8--8-8-|-8--8--7-7-5-5-3-|-3/5--5-5--5-5--|-5-5-3-3-8--8--7-|
E|-7/8--8-8--8-8-|-----------------|-3/5--5-5--5-5--|-----------------|

e|---------------|-----------------|---------------|-----------------|
B|---------------|-----------------|---------------|-----------------|
G|---------------|-10-10-9-9-7-7-5-|---------------|-7-7-5-5-4-4-2-2-|
D|-7/8--8-8--8-8-|-x--x--x-x-x-x-x-|-3/5--5-5--5-5-|-x-x-x-x-x-x-x-0-|
A|-7/8--8-8--8-8-|-8--8--7-7-5-5-3-|-3/5--5-5--5-5-|-5-5-3-3-2-2-0-0-|
E|-7/8--8-8--8-8-|-----------------|-3/5--5-5--5-5-|---------------0-|

[Post-Chorus 1]
   12/8         2/4
e|------------|-------|------------|-------|------------|-------|------------|---------|
B|------------|-------|------------|-------|------------|-------|------------|---------|
G|------------|-------|------------|-------|------------|-------|------------|---------|
D|------------|-------|------------|-------|------------|-------|------------|---------|
A|------------|-----3-|------------|-----3-|------------|-----3-|------------|---------|
E|-0--0--0--0-|-3-5---|-0--0--0--0-|-3-5---|-0--0--0--0-|-3-5---|-0--0--0--0-|-0-3-5-3-|
[Verse 2]-Same as Verse 1
[Chorus]
[Post-Chorus 2/Bridge]
    12/8         2/4
e|------------|---------|------------|---------|------------|---------|------------|---------|
B|------------|---------|------------|---------|------------|---------|------------|---------|
G|------------|---------|------------|---------|------------|---------|------------|---------|
D|------------|---------|------------|---------|------------|---------|------------|---------|
A|------------|---------|------------|---------|------------|---------|------------|---------|
E|-0--0--0--0-|-0-3-5-3-|-0--0--0--0-|-0-3-5-3-|-0--0--0--0-|-0-3-5-3-|-0--0--0--0-|-0-3-5-3-|

e|------------|---------|------------|---------|------------|---------|------------|---------|
B|------------|---------|------------|---------|------------|---------|------------|---------|
G|------------|---------|------------|---------|------------|---------|------------|---------|
D|-0--0--0--0-|-0-3-5-3-|-0--0--0--0-|-0-3-5-3-|-0--0--0--0-|-0-3-5-3-|-0--0--0--0-|-0-3-5-3-|
A|-0--0--0--0-|-0-3-5-3-|-0--0--0--0-|-0-3-5-3-|-0--0--0--0-|-0-3-5-3-|-0--0--0--0-|-0-3-5-3-|
E|-0--0--0--0-|-0-3-5-3-|-0--0--0--0-|-0-3-5-3-|-0--0--0--0-|-0-3-5-3-|-0--0--0--0-|-0-3-5-3-|

e|------------|---------|------------|---------|-------------|---------|------------|---------|
B|------------|---------|------------|---------|-------------|---------|------------|---------|
G|------------|---------|------------|---------|-------------|---------|------------|---------|
D|-5--5--5--5-|-5-7-8-7-|-5--5--5--5-|-5-7-8-7-|-0--0--0--0--|-0-3-5-3-|-0--0--0--0-|---------|
A|-5--5--5--5-|-5-7-8-7-|-5--5--5--5-|-5-7-8-7-|-0--0--0--0--|-0-3-5-3-|-0--0--0--0-|-5p3-----|
E|-5--5--5--5-|-5-7-8-7-|-5--5--5--5-|-5-7-8-7-|-0--0--0--0--|-0-3-5-3-|-0--0--0--0-|-----5p3-|
[Chorus]
[Outro]
     12/8        2/4                                                    9/8
e|------------|---------|------------|---------|------------|---------|---------|
B|------------|---------|------------|---------|------------|---------|---------|
G|------------|---------|------------|---------|------------|---------|---------|
D|-0--0--0--0-|-0-3-5-3-|-0--0--0--0-|-0-3-5-3-|-0--0--0--0-|-0-3-5-3-|-0--0--0-|
A|-0--0--0--0-|-0-3-5-3-|-0--0--0--0-|-0-3-5-3-|-0--0--0--0-|-0-3-5-3-|-0--0--0-|
E|-0--0--0--0-|-0-3-5-3-|-0--0--0--0-|-0-3-5-3-|-0--0--0--0-|-0-3-5-3-|-0--0--0-|


************************************

| p  Pull-off
| x  Dead note
| /  Slide up 

************************************    

Added On November 4th, 2016

SHARE

Comments

blog comments powered by Disqus

ADVERTISEMENT