Misc Tabs

Die Brennende Legion

1 versions

TAB

            Tabbed by: AcousticMetal99
Email: huntmaster09@hotmail.com

Hey guys, this is a really easy song - really, I worked it out in about 5 minutes :)
 Apologies for lack of lyrics - I'll try and add those at some later point.

I find  arpeggiated barre chords work best for the intro, but whatever suits you...


Tuning: Standard

It begins with 8 bars of drum beats then:

Intro/Verse
          D          A#         C             F
e|--------5----------6----------8-------------1---------|
B|--------6----------6----------8-------------1---------|
G|--------7----------7----------9-------------2---------|
D|--------7----------8----------10------------3---------|
A|--------5----------8----------10------------3---------|
E|--------x----------6----------8-------------1---------|

This repeats basically throughout the entire song. The chorus may be different - just 
send me an email if you have an improvement.

Then there's this little bridge:
e|-------------------------------------------------------------|
B|-------------------------------------------------------------|
G|-------------------------------------------------------------|
D|------7-5-7-----5-7-5-7-----5-7-5-7------7-10-8-7-8-5--------|
A|-------------------------------------------------------------|
E|-------------------------------------------------------------|
                                           ^^This part is a tad ornamented

After the intro, the verse can be played as full (barre) chords, or as power chords - 
power chords work better in the chorus.

That's it!    

Added On December 16th, 2013

SHARE

Comments

blog comments powered by Disqus

ADVERTISEMENT