Misfits Tabs

American Nightmare

3 versions

TAB

            American Nightmare Tab by Misfits


Band: Misfits
Song: American Nightmare

Tabber: John Cukras
Email: riffreaper@yahoo.com

Tuning: normal

Very Clean - Country type sound effect

Riff 1:
E-------|
B-------|
G-------|
D-2-22--|
A-2-22--|
E-0-00--| x's 12

Riff 2:
E-----------------------------|
B-----------------------------|
G-----------------------------|
D--------2-22-2-22-4444-5555--|
A-777777-2-22-2-22-2222-3333--|
E-555555-0-00-0-00------------|

Riff 1 x's 8

Riff 2

Riff 1 x's 2

Riff 3:  A                       B                   C
E-------------------------|-----------------|-----------------------|
B-------------------------|-----------------|-----------------------|
G-------------------------|-----------------|-----------------------|
D--------2-22-2-22--------|-44444-2-22-2-22-|--44444-555-2-22-2-22--|
A-777777-2-22-2-22--------|-22222-2-22-2-22-|--22222-333-2-22-2-22--|
E-555555-0-00-0-00 x's 2--|-------0-00-0-00-|------------0-00-0-00--| x's 2

Riff 3: B x's 2, A once, C x's 2

Riff 1 x's 2 (end with hard stroke)    

Added On December 5th, 2013

SHARE

Comments

blog comments powered by Disqus

VERSIONS

ADVERTISEMENT