Modest Mouse Tabs

Little Motel

3 versions

TAB

            Little Motel Tab by Modest Mouse


Title: Little Motel
Artist: Modest Mouse
Album: We Were Dead Before the Ship Even Sank

tabbed by Steve "SPiV" Perreira IV


Guitar I - Johnny Marr
Guitar II - Isaac Brock


--

Guitar I - Johnny Marr


intro/verse
e--------------------------------------------|
B----8---------8---------8---------8---------|
G--------10--------10--------10--------10----|
D-----------10--------10--------10--------10-|
A--8---8---------8---------8---------8-------|
E--------------------------------------------|

e------------------|-------------------|
B------------------|-------------------|
G--9---9---7---9---|-------9---7---9---|
D------------------|--10---------------|
A------------------|-----------------8-|
E----8---8---8---8-|-----8---8---8-----|


chorus
e-----------------------------------|--------------------------|
B-----------------------------------|----------------12--------|
G--9---9---7---5----7---7---5---4---|------9------9------10----|
D----7---7---5---3----5---5---3---2-|--10-----12---------------|
A-----------------------------------|--------------------------|
E-----------------------------------|--------------------------|


solo
e--------------------------|-------------------------|
B--8-----8-----8-----8-----|-------------------------|
G-----9-----9-----9-----9--|--9--7--9--7--5--7--5b---|
D--------------------------|-------------------------|
A--------------------------|-------------------------|
E--------------------------|-------------------------|x6


pre-chorus fills
e--------------------------|
B--5-------8---------------|
G----7s5-----9s5--4-4-4-4b-|
D--------------------------|
A--------------------------|
E--------------------------|


last chorus
e-----------------------------------|----------------------------------|
B-----------------------------------|----------------------------------|
G--7/9-9-9-7/9-9-9------------------|--------------------------5/7-7-7-|
D------------------7/9-9-9-7/9-9-10-|--10s-5-10--5-5-5-3-3-3-3---------|
A-----------------------------------|----------------------------------|
E-----------------------------------|----------------------------------|

e--------------------------------------|----------------------------------|
B--------------------------------------|----------------------------------|
G--12s9-7-5-12s9-7-5-------------------|----------------------5/7-7-9-9-9-|
D--------------------7/9-9-9-10-9-10-9-|--10s-5-10--5-5-5-3-3-------------|
A--------------------------------------|----------------------------------|
E--------------------------------------|----------------------------------|

e--------------------------------------|----------------------------------|
B--------------------------------------|----------------------------------|
G--12s9-7-5-12s9-7-5-------------------|-----------------------------7----|
D--------------------7/9-9-9-10-9-10-9-|--10s-5-10--5-5-5-3-3-3b----------|
A--------------------------------------|----------------------------------|
E--------------------------------------|----------------------------------|


--

Guitar II - Isaac Brock


intro
e----------------------------|----------------------------|
B----------------------------|----------------------------|
G--5/7--9--9-7--5----/12--9--|--5/7--9--9-7--5/7--9--9-7--|
D--5/7--9--9-7--5----/12--9--|--5/7--9--9-7--5/7--9--9-7--|
A----------------------------|----------------------------|
E----------------------------|----------------------------|

e---------------------------------|
B---------------------------------|
G--5/7--9--9-7--5----/12-12-12-9--|
D--5/7--9--9-7--5----/12-12-12-9--|
A---------------------------------|
E---------------------------------|


second chorus
e-------------------------|------------------------|
B-------------------------|------------------------|
G-------------------------|------------------------|
D-------------------------|------------------------|
A--7----7-7-7--5----5-5-5-|--10----10/12-10--------|
E--5----5-5-5--3----3-3-3-|--8-----8-/10-8---------|x2


verse
e------------------------------|-------------------------------|
B------------------------------|-------------------------------|
G------------------------------|-------------------------------|
D------------------------------|-------------------------------|
A--7---7---7-7--5---5---5--5-5-|--10---10---10-10--3---3---3-3-|
E--5---5---5-5--3---3---3--3-3-|--8----8----8--8---1---1---1-1-|


bridge (pre-solo w/delay)
e--12--12--12--12s10--10--10--10s-|--8--8--8--8-----7-----7--|
B---------------------------------|--------------8-----8-----|
G---------------------------------|--------------------------|
D---------------------------------|--------------------------|
A---------------------------------|--------------------------|
E---------------------------------|--------------------------|

e--12--12--12--12s10--10--10--10s-|--8--8--8--8--7-----7-----|
B---------------------------------|-----------------8-----8--|
G---------------------------------|--------------------------|
D---------------------------------|--------------------------|
A---------------------------------|--------------------------|
E---------------------------------|--------------------------|

e--12--12--12--12s10--10--10--10s-|--8--8--8--8/15--15--15--15-|
B---------------------------------|----------------------------|
G---------------------------------|----------------------------|
D---------------------------------|----------------------------|
A---------------------------------|----------------------------|
E---------------------------------|----------------------------|


solo
e--15s12--15s12--15s12--10--12--|--12--10--12--10------10------10-|
B-------------------------------|------------------13------13-----|
G-------------------------------|---------------------------------|
D-------------------------------|---------------------------------|
A-------------------------------|---------------------------------|
E-------------------------------|---------------------------------|

e--/15--12--15--12--15--12------12-|--12------12------8--10-10-8-8-7/-|
B---------------------------15-----|------10------10------------------|
G----------------------------------|----------------------------------|
D----------------------------------|----------------------------------|
A----------------------------------|----------------------------------|
E----------------------------------|----------------------------------|

e--/15-15-12-12-15-15-12-12-|--15-15-12-12-10-10-12-12-|--12-12-10-10-12-12-10-10-|--12-12-10-10-12-12-------|
B---------------------------|--------------------------|--------------------------|--------------------12-13-|
G---------------------------|--------------------------|--------------------------|--------------------------|
D---------------------------|--------------------------|--------------------------|--------------------------|
A---------------------------|--------------------------|--------------------------|--------------------------|
E---------------------------|--------------------------|--------------------------|--------------------------|


e--15-15-12-12-15-15-12-12-|--17-17-15-15-17-17-19-19-|--20-20-19-19-17-17-15-15-|--13-13-12-12-13-13-12-12-|
B--------------------------|--------------------------|--------------------------|--------------------------|
G--------------------------|--------------------------|--------------------------|--------------------------|
D--------------------------|--------------------------|--------------------------|--------------------------|
A--------------------------|--------------------------|--------------------------|--------------------------|
E--------------------------|--------------------------|--------------------------|--------------------------|


e--15-15-12-12-15-15-12-12-|--17-17-15-15-13-13-------|--12-12-10-10-12-12-15-15-|--12b--10b--12b--10b------|
B--------------------------|--------------------15-15-|--------------------------|--------------------------|
G--------------------------|--------------------------|--------------------------|--------------------------|
D--------------------------|--------------------------|--------------------------|--------------------------|
A--------------------------|--------------------------|--------------------------|--------------------------|
E--------------------------|--------------------------|--------------------------|--------------------------|

e--15-15-15-15-15-15-15-15-|--13-13b-12b-------12b----|--15-15-15-15-15-15-15-13-|--15b--15-13--15--15------|
B--------------------------|--------------13b---------|--------------------------|--------------------------|
G--------------------------|--------------------------|--------------------------|--------------------------|
D--------------------------|--------------------------|--------------------------|--------------------------|
A--------------------------|--------------------------|--------------------------|--------------------------|
E--------------------------|--------------------------|--------------------------|--------------------------|


pre-chorus fills
e----------------------------------|
B----------------------------------|
G--12-9-5--12-9-5--12-9-5--12-9-5--|
D--12-9-5--12-9-5--12-9-5--12-9-5--|
A----------------------------------|
E----------------------------------|


--

tabbed by Steve "SPiV" Perreira IV    

Added On December 16th, 2013

SHARE

Comments

blog comments powered by Disqus

VERSIONS

ADVERTISEMENT