Motorhead Tabs

King Of Kings

6 versions

TAB

            King Of Kings Tab by Motorhead


-------------------------------------------------------------------------------
                          Mötorhead - King of kings
-------------------------------------------------------------------------------
Tabbed by:Natansh
Email:natansh_18@hotmail.com

Tuning:Drop D (DADGBe)
The tab is incomplete(no verse, only intro and chorus) as i do not have the whole 
plus theres a bit of a lead going on (just a few notes) during the intro. Im sure one of u 
figure out the parts left out.


INTRO (0:00 - 0:20)
e|-----------------------------------------------------------------------------|
B|-----------------------------------------------------------------------------|
G|-----------------------------------------------------------------------------|
D|-2~----------------------------------------------2-2--2-2--2-2--2--2---------|
A|-2~----------------------------------------------2-2--2-2--2-2--2--2---------|
D|-2~----------------------------------------------2-2--2-2--2-2--2--2---------|
Behold the king,the king of kings; on your knees boy
CHORUS
e|------------------------------------------------------------------------------|
B|------------------------------------------------------------------------------|
G|------------------------------------------------------------------------------|
D|--5~--0~----2-2-2---8-7-5--2-2-2---8-7-5------5~-0~---------------------------|
A|--5~--0~----2-2-2---8-7-5--2-2-2---8-7-5------5~-0~---------------------------|
D|--5~--0~----2-2-2---8-7-5--2-2-2---8-7-5------5~-0~---------------------------|
Bow down to the, bow down to the king!

And then the verse begins. Sum1 plz figure it out...!


| /  slide up
|   slide down
| h  hammer-on
| p  pull-off
| ~  vibrato
| +  harmonic
| x  Mute note
===============================================================================    

Added On December 5th, 2013

SHARE

Comments

blog comments powered by Disqus