Mudvayne Tabs

Goodbye

2 versions

TAB

            Goodbye Tab by Mudvayne


***There is 2 alternate ways of playing this song, you can play it
on the 1st and 2nd string OR you can play on the 2nd and 3rd string,
for goodbye(version 2) it sounds like Greg plays on the 1st and 2nd
string.

D|----------------------------------------------------------------||
A|----------------------------------------------------------------||
F|----------------------------------------------------------------||
C|----------------------------------------------------------------||
G|---0---0---0---0----0---0---0--0--0--0--0--0--0--0--0--0--0--0--||
C|-7---7---7---10---12--12---6--6--6--7--3--3--3--5--2--2--1--1---||


******************************OR***********************************

D|--------------------------------------||
A|--------------------------------------||
F|--------------------------------------||
C|--7-7-7-10-10-6-6-6-7-3-3-3-5-2-2-1-1-||
G|-0-0-0-0--0--0-0-0-0-0-0-0-0-0-0-0-0--||
C|--------------------------------------||    

Added On December 5th, 2013

SHARE

Comments

blog comments powered by Disqus

VERSIONS

ADVERTISEMENT