Mumford And Sons Tabs

Im Not Alone

1 versions

TAB

            This is a cover of a Calvin Harris song. It is fairly short but very entertaining. 
Love it mates, keep it up!

-----------------------------------------------------------------------------
			                I'm Not Alone - Mumford and Sons
-----------------------------------------------------------------------------
Tabbed by: Macheeoo
Email: macheeoo@yahoo.com

Tuning: Standard



Intro:
e|--------------------------|
B|--------------------------|
G|---4----44-----4----------|
D|-----0-----0--------------|
A|--------------------------|
E|---3---3-----3------------|  x4

     
e|--------------------------------------------------------------------------|
B|--------------------------------------------------------------------------|
G|---4----44----7----2----22-----2------------------------------------------|
D|-----0---------------0-----0----------------------------------------------|
A|--------------------------------------------------------------------------|
E|---3---3------7----2---2-----2--------------------------------------------|  x8

     ^Can you stay up for the weekend
      And blame God for looking too old
      Can we find all that you stand for
      Has been replaced with mountains of gold

      You cannot dream yourself to notice
      To feel pain and swallow fear
      But can you stay up for the weekend
      Till next year

e|--------------------------------------------------------------------------|
B|--------------------------------------------------------------------------|
G|---2-----22----5----4----44----4------------------------------------------|
D|-----0----------------0-----0---------------------------------------------|
A|--------------------------------------------------------------------------|
E|---2---2-------5----3---3-----3-------------------------------------------|  x4

     ^God I can't do this any more
      Though I'll be laid down on the floor
      As many feet walk through the door
      I'm not alone

Bridge:
G G Bm Bm C,  C Bm C D D G G C,  Em D C Bm G G Bm Bm C,  C Bm C D D G G CCCC

G                       C
If I see a light flashing
                           G          C
Could this mean that I'm coming home
G                C
If I see a man waving
                    G             C
Does this mean that I'm not alone         x4    

Added On December 16th, 2013

SHARE

Comments

blog comments powered by Disqus

ADVERTISEMENT