TAB

            Song: Sleep
Band: My Chemical Romance
Album: The Black Parade

Key:

x:- String Mute
*:- Palm Mute
/:- Slide
^(#):- Bend To Fret
r:- Release
~:- Let Ring

Gtr I: Ray Toro: Standard Tuning (e,B,G,D,A,E)
Gtr II: Frank Iero: Standard Tuning (e,B,G,D,A,E)

Intro I:

Gtr I (Piano)

e:|---------------------------------|
B:|-1---1-----------1---1---0---0---|
G:|-0---0---1---1---0---0---0---0---| (x4)
D:|-2---2---3---3---2---2---2---2---|
A:|---3---3-3---3-------------------|
E:|-----------1---1---3---3---3---3-|

Intro II:

Gtr I

e:|---------------------------------------------------------------------|
B:|---------------------------------------------------------------------|
G:|-1212121212121212/13131313/15151515-12121212121212121313131312121010-|
D:|--x-x-x-x-x-x-x-x--x-x-x-x--x-x-x-x--x-x-x-x-x-x-x-x-x-x-x-x-x-x-x-x-|
A:|-1010101010101010/11111111/13131313-1010101010101010111111111010-8-8-|
E:|---------------------------------------------------------------------|

e:|-----------------------------------------------------------------------|
B:|-----------------------------------------------------------------------|
G:|-9/10/12121212-55/13131313/15151515-1212121212121212/13131313/10101010-|
D:|-x--x--x-x-x-x-xx--x-x-x-x--x-x-x-x--x-x-x-x-x-x-x-x-x-x-x-x---x-x-x-x-|
A:|-7/-8/10101010-33/11111111/13131313-1010101010101010/11111111/-8-8-8-8-|
E:|-----------------------------------------------------------------------|

Gtr II

e:|-------------------------------------|
B:|-------------------------------------|
G:|-55555555----------------------------| (x2)
D:|-55555555-33333333-55555555-33333333-|
A:|-33333333-33333333-55555555-33333333-|
E:|----------11111111-33333333-11111111-|

Verses:

Gtr I (I don't know the strumming pattern for this)

e:|---------------------------------|
B:|-1-1-1-1---------1-1-1-1-0-0-0-0-|
G:|-0-0-0-0-1-1-1-1-0-0-0-0-0-0-0-0-| (x4)
D:|-2-2-2-2-3-3-3-3-2-2-2-2-2-2-2-2-|
A:|-3-3-3-3-3-3-3-3-x-x-x-x-x-x-x-x-|
E:|---------1-1-1-1-3-3-3-3-3-3-3-3-|

Gtr II (This comes in after Gtr I has played the previous riff twice)

e:|--------------------------------------------------------------|
B:|--------------------------------------------------------------|
G:|------------------------------------------12/13/12-12^(13)r12-|
D:|--------------------------------------------------------------|
A:|-----11~~-10~~-------11~~-11/13~~-10~~------------------------|
E:|-8~~-------------8~~------------------------------------------|

Pre-Chorus:

Gtr I

e:|-----------------------------------------------------------------|
B:|-9------------9--------------------------------------------------|
G:|---5-7-8-7-5----5-7-8-7-5-7/8/7/5~-1010-7-8~-7/8/7/5~-1010-7-5-3-|
D:|--------------------------x-x-x-x---x-x-x-x--x-x-x-x---x-x-x-x-x-|
A:|--------------------------5/6/5/3~--8-8-5-6~-5/6/5/3~--8-8-5-3-1-|
E:|-----------------------------------------------------------------|

e:|-----------------------------------------|
B:|-9----------------9----------------------|
G:|---5-7-7^(8)r7-5----5-7-7^(8)r7-5--------|
D:|-----------------------------------------|
A:|----------------------------------3/12/3-|
E:|-----------------------------------------|

Gtr II

e:|-----------------------------------------------------------------|
B:|-----------------------------------------------------------------|
G:|---------------------------------5-5-5-5-5-5-5-5-3-3-3-3-3-3-3-3-|
D:|-6-6-6-6-6-6-6-6-3-3-3-3-3-3-3-3-5-5-5-5-5-5-5-5-3-3-3-3-3-3-3-3-|
A:|-6-6-6-6-6-6-6-6-3-3-3-3-3-3-3-3-3-3-3-3-3-3-3-3-1-1-1-1-1-1-1-1-|
E:|-4-4-4-4-4-4-4-4-1-1-1-1-1-1-1-1---------------------------------|

e:|---------------------------------|
B:|---------------------------------|
G:|---------------------------------|
D:|-6-6-6-6-6-6-6-6-3-3-3-3-3-3-3-3-|
A:|-6-6-6-6-6-6-6-6-3-3-3-3-3-3-3-3-|
E:|-4-4-4-4-4-4-4-4-1-1-1-1-1-1-1-1-|

Chorus:

Gtr I

e:|------------------------------------|
B:|------------------------------------|
G:|-5555555555555555-------------------| (x2)
D:|-5555555555555555-22222222-22222222-|
A:|-3333333333333333-33333333-22222222-|
E:|------------------00000000-00000000-|

Gtr II

e:|---------------------------------------------|
B:|---------------------------------------------|
G:|-1212121212121212-10/99/77/55555555-44444444-| (x2)
D:|--x-x-x-x-x-x-x-x--x-xx-xx-xxxxxxxx-xxxxxxxx-|
A:|-1010101010101010--8/77/55/33333333-22222222-|
E:|---------------------------------------------|

Both Gtr's

e:|----------------------------|
B:|----------------------------|
G:|----------------------------|
D:|-3-3-3-3-3-3-3-3-66666666-5-|
A:|-3-3-3-3-3-3-3-3-66666666-5-|
E:|-1-1-1-1-1-1-1-1-44444444-3-|

Repeat Verse

Repeat Pre-Chorus

Repeat Chorus

Repeat Intro I x4, and on the third repeat play this under it:

Gtr I

e:|--------------------------------------|
B:|--------------------------------------|
G:|--------------------------------------| (x2)
D:|-55555555-----------------------------|
A:|-33333333-33333333-555555555-33333333-|
E:|----------11111111-333333333-11111111-|
PM  ******** ******** ********* ********

Gtr II

e:|---------------------------------|
B:|---------------------------------|
G:|---------------------------------| (x2)
D:|---------------------------------|
A:|-3-3-5-2-3-3-5-2-3-3-5-2-3-3-5-2-|
E:|---------------------------------|
PM  * * * * * * * * * * * * * * * *

Repeat Intro II as many times as necessary and end it with:

Gtr I

e:|----------------------------|
B:|----------------------------|
G:|-17-17-17-17-19-19/20/19-17-|
D:|--x--x--x--x--x--x--x--x--x-|
A:|-15-15-15-15-17-17/18/17-15-|
E:|----------------------------|

Gtr II

e:|-----------------|
B:|-----------------|
G:|-----------------|
D:|-5-5-5-5-5-5-5-5-|
A:|-5-5-5-5-5-5-5-5-|
E:|-3-3-3-3-3-3-3-3-|

Repeat Chorus x4

End with:

Gtr I

e:|------------------------------------------------------|
B:|-20----------------------20---------------------------|
G:|----19-17----19-20-19-17----19-17----19-19^(20)r19-17-| (x4)
D:|----------17----------------------17------------------|
A:|------------------------------------------------------|
E:|------------------------------------------------------|

e:|--------|
B:|-20~~~~-|
G:|--------|
D:|--------|
A:|--------|
E:|--------|

Gtr II

e:|-------|
B:|-------|
G:|-5~~~~-|
D:|-5~~~~-|
A:|-3~~~~-|
E:|-------|    

Added On December 16th, 2013

SHARE

Comments

blog comments powered by Disqus

VERSIONS

ADVERTISEMENT