My Chemical Romance Tabs

We Dont Need Another Song About California

1 versions

TAB

            INTRO PART ONE (PLAY THREE TIMES)
e-------------------------------------------------------------------------------|
B-------------------------------------------------------------------------------|
G9-9-9-9(x2)11-11-11-11-8-8-8-8-14-14-14-14-14-14-14-14-13-13-13-13-13-13-13-13-|
D-------------------------------------------------------------------------------|
A-------------------------------------------------------------------------------|
E-------------------------------------------------------------------------------|

INTRO PART TWO (PLAY ONCE THEN STOP PLAYING WHEN VOCALS COME IN)
e-----------------------------------------------------------------------------|
B-----------------------------------------------------------------------------|
G9-9-9-9(x2)11-11-11-11-8-8-8-8-6-6-6-6-6-6-6-6-8-4-4-4-4-4-4-4-4-------------|
D-----------------------------------------------------------------------------|
A-----------------------------------------------------------------------------|
E-----------------------------------------------------------------------------|

VERSE (0:46) PLAY THIS TWICE
e-------------------------------------------------------------------------------|
B-------------------------------------------------------------------------------|
G9-9-9-9(x2)11-11-11-11-8-8-8-8-14-14-14-14-14-14-14-14-13-13-13-13-13-13-13-13-|
D-------------------------------------------------------------------------------|
A-------------------------------------------------------------------------------|
E-------------------------------------------------------------------------------|

CHORUS
e-------------------------------------------------------------|
B-------------------------------------------------------------|
G--------4-------------5-------------4-------------5-----7----|
D-5------4(x16)-7------5(x16)-5------4------7------5(x8-------|7(x8)
A-5(x16)-2------7(x16)-3------5(x16)-2(x16)-7(x16)-3-----5----|
E-3-------------5-------------3-------------5-----------------|


PLAY INTRO PART ONE

VERSE (2:03) PLAY TWICE
e-------------------------------------------------------------------------------|
B-------------------------------------------------------------------------------|
G9-9-9-9(x2)11-11-11-11-8-8-8-8-14-14-14-14-14-14-14-14-13-13-13-13-13-13-13-13-|
D-------------------------------------------------------------------------------|
A-------------------------------------------------------------------------------|
E-------------------------------------------------------------------------------|

CHORUS

SOLO (PLAY FOUR TIMES)
e--------------------------------------------------------------------|
B--------------------------------------------------------------------|
G-11h12po11-----11h12po11------------------11h12po11----14\16\14--11-|
D-----------14------------14--11-12-11-12------------14--------------|
A--------------------------------------------------------------------|
E--------------------------------------------------------------------|



INTRO PART ONE (PLAY THREE TIMES)
CHORUS
INTRO PART ONE    

Added On December 16th, 2013

SHARE

Comments

blog comments powered by Disqus

ADVERTISEMENT