Neil Young Tabs

Devils Sidewalk

3 versions

TAB

            Devils Sidewalk Tab by Neil Young


Artist: Neil Young
Song: Devil's Sidewalk
Album: Greendale
Tabbed by:  Jesse Baer-Hennig (jesse at jesse d ot biz)

Standard Tuning dropped a whole step down (DGCFAD)

inbetween Riffs the chords are barre chords
as noted below (i'm not going to re-write them for every bar)
Make sure to play it grungy and wail on those riffs :)

|------------------------------0--3--5----------|-|
|------------------------------0--3--5----------|-|
|------------------------------1--4--6----------|-|
|--------7---------------------2--5--7----------|-|
|-7--10-----10--7------7-------2--5--7----------|-|
|------------------10----------0--3--5----------|-|


|-------------------------------------------------|
|-------------------------------------------------|
|-------------------------------------------------|
|-7--7--------------------------7--9--7-----------|
|-------10--7------7-----7--10-----------10--7----|
|--------------10---------------------------------|


|-------------------------------------------------------|
|-------------------------------------------------------|
|-------------------------------------------------------|
|------------------------------------7h-10--10----------|
|-7--7------7--10--7----------7--10-------------10--7---|
|-------10----------------------------------------------|


|------------------------------------------------------|
|------------------------------------------------------|
|------------------------------------------------------|
|-7-----7-----------------------------7--9--7----------|
|-7--------10--7------7--------7--10-----------10--7---|
|-----------------10-----------------------------------|


|-----------------------|
|-----------------------|
|-----------------------|
|-----------------------|
|-----------7--10--7----|
|-7--7--10--------------|

| Same 0-3-5 barre chord pattern follows here and throughout the song: |

Well the red light shines
On the streets of hate
Where the devil dines
Who knows what he ate

"It's a simple thing
Trying to stay afloat"
The captain said
Without his boat

Some things are getting better
Other things a little worse
It's a situation
Much like a curse

|--------------------------|----------------------|
|--------------------------|----------------------|
|--------------------------|----------------------|
|--------7-----------------|-7--7-----------------|
|-7--10-----10--7------7---|-------10--7------7---|
|------------------10------|--------------10------|


"It's the devil's sidewalk
It's the devil's door
I've tried to avoid it"
Said the captain of the shore

There's a garden growing
And a million weeds
With no way of knowing
Who's done which deed

|--------------------------|
|--------------------------|
|--------------------------|
|--------7-----------------|---(7)
|-7--10-----10--7------7---|
|------------------10------|

"That's an honest tale"
Said the helmsman to the mate
"About a woman delicious
And a matter of fate"

|--------------------------|----------------------|
|--------10b11--11-11r10~~~|----------------------|
|/9--12--------------------|----------------------|
|--------------------------|-7--7-----------------|
|--------------------------|-------10--7------7---|
|--------------------------|--------------10------|


|--------------------------|----------------------|
|--------10b11-------------|----------------------|
|/9--12---------12--9------|----------------------|
|--------------------------|-7--7-----------------|
|--------------------------|-------10--7------7---|
|--------------------------|--------------10------|

Big wheel keep rollin'
Down on me
"One thing I can tell you
Is you got to be free"

John Lennon said that
And "I believe in love"
But I believe in action
When push comes to shove

|------------------------|
|------------------------|
|------------------------|
|--------7---------------|
|-7--10-----10--7------7-|
|------------------10----|
"Who cares what you believe,"
Said the captain, amazed
"If you stood in my shoes
Your eyes would be glazed"

|--------------------------|
|--------10b11--11-11r10-8-|
|/9--12--------------------|
|--------------------------|
|--------------------------|
|--------------------------|
(another 2 riffs sorta like this last one
|-------------------|
|-------------------|
|-------------------|
|-7h9-7-------------|
|-------10--7-------|
|-------------10-7--|

So, my fair damsel
Won't you take your leave
Are you headed for the country?
Where you wear the greensleeves

And the children laugh
And the old folks sing
And the church bell tolls
For a miraculous thing

Where the big red furnace
Just blooms and glows
Where the big heart beats
Where the big wheel rolls

the rest of this is rocking out on the E blues scale
like the rest of the song is...I'm getting lazy :)    

Added On December 5th, 2013

SHARE

Comments

blog comments powered by Disqus

VERSIONS

ADVERTISEMENT