Neil Young Tabs

Whos Gonna Stand Up

1 versions

TAB

            [Chords]
G/D  xxx787   
G5/D xxx7/8/10   
D*   xxx775   
C*   xxx553 

[Intro]
e|---------------------------------------| 
B|---------------------------------------| 
G|---------------------------------------| 
D|---0--2--2--2--2--2--0--2--2--2--2--2--| x2
A|---------------------------------------| 
E|---------------------------------------| 

[Intro]
Em Esus Em Esus Em Esus A 
Em Esus Em Esus Em Esus A 

[Verse]
Em          Asus2  Em           A    
Protect the wild,  tomorrow's child. 
Em          Esus4           A
Protect the land from the greed of man 
Em           Asus2  Em           A   
Take out the dams.  Stand up to oil. 
Em          Esus4                 A
Protect the plants and renew the soil 

[Chorus]
G/D         G5/D  G/D     D*       G/D 
Who's gonna stand up and save the earth? 
G/D         G5/D G/D         D*    C* 
Who's gonna say  that she's had enough? 
G/D         G5/D G/D     D*     G/D 
Who's gonna take on the big machine? 
G/D         G5/D  G/D     D*       C*
Who's gonna stand up and save the earth? 
G/D   D*  C*     D   C
This all starts with you and me! 

[Riff]
e|---------------------------------------| 
B|---------------------------------------| 
G|---------------------------------------| 
D|---0--2--2--2--2--2--0--2--2--2--2--2--| x4
A|---------------------------------------| 
E|---------------------------------------| 

[Verse]
Em         Asus2  Em        A    
End fossil fuel.  Draw the line. 
Em        Esus4               A  
Before we build one more pipeline
Em           Asus2  Em              A
End fracking now.   Let's save the water 
Em          Esus4         A 
And build a life for our sons and daughters 

[Chorus]
G/D         G5/D  G/D     D*       G/D 
Who's gonna stand up and save the earth? 
G/D         G5/D G/D         D*    C* 
Who's gonna say  that she's had enough? 
G/D         G5/D G/D     D*     G/D 
Who's gonna take on the big machine? 
G/D         G5/D  G/D     D*       C*
Who's gonna stand up and save the earth? 
G/D   D*  C*     D   C 
This all starts with you and me! 

[Riff]
e|---------------------------------------| 
B|---------------------------------------| 
G|---------------------------------------| 
D|---0--2--2--2--2--2--0--2--2--2--2--2--| x2
A|---------------------------------------| 
E|---------------------------------------| 

[Interlude]
Em Esus Em Esus Em Esus A 

[Verse]
Em       Asus2  Em           A
Damn the dams.  Save the rivers. 
Em         Esus4        A
Starve the takers and feed the givers 
Em              Asus2  Em              A 
Let's build the green. Let's save the world 
Em        Esus4            A
We're the people known as earth 

[Chorus]
G/D         G5/D  G/D     D*       G/D 
Who's gonna stand up and save the earth? 
G/D         G5/D G/D         D*    C* 
Who's gonna say  that she's had enough? 
G/D         G5/D G/D     D*     G/D 
Who's gonna take on the big machine? 
G/D         G5/D  G/D     D*       C*
Who's gonna stand up and save the earth? 
G/D   D*  C*     D   C
This all starts with you and me! 

[Outro]
e|---------------------------------------| 
B|---------------------------------------| 
G|---------------------------------------| 
D|---0--2--2--2--2--2--0--2--2--2--2--2--| x8 
A|---------------------------------------| 
E|---------------------------------------|    

Added On January 21st, 2017

SHARE

Comments

blog comments powered by Disqus

ADVERTISEMENT