Newsboys Tabs

Breakfest Intro

2 versions

TAB

            Breakfest Tab by Newsboys


-------------------------------------------|
-------------------------------------------|
-------------------------------------------|
----9---9---9-14-14------------------------|
--7---7---7---12-12------------------------|
-------------------------------------------|

-------------------------------------------|
-------------------------------------------|
-------------------------4---4---4---------|
----6---6---6---6---6--2---2---2-----------|
--4---4---4---4---4------------------------|
-------------------------------------------|    

Added On December 5th, 2013

SHARE

Comments

blog comments powered by Disqus

VERSIONS

ADVERTISEMENT