Newton Faulkner Tabs

This Town

1 versions

TAB

            Written by Newton Faulkner & Denise Adam
Tabbed (as best I could) by Samuel Litter (Syrillia)

Tuning: Double Drop-D (DADGBd)
Capo: None

h# = hit the harmonic. h12 means hit harmonic 12. When
     doing it, keep your fingers on the string.


(introduction)
e||---7---5---4---------4---2---0---------0---2---0---------0---2---4-|
B||---7---5---3---------3---2---0---------0---2---0---------0---2---3-|
G||-------------------------------------------------------------------| x 1
D||-------------------------------------------------------------------|
A||--------------------------------0----------------------------------|
E||-0-----------------------------------------------------------------|

(verse - same as intro)
e||---7---5---4---------4---2---0---------0---2---0---------0---2---4-|
B||---7---5---3---------3---2---0---------0---2---0---------0---2---3-|
G||-------------------------------------------------------------------| x 4
D||-------------------------------------------------------------------|
A||-5-----------------------------0-----------------------------------|
E||-------------------------------------------------------------------|

I should know by now,
I should see some how,
How to bring her round,
How to breathe.

I don’t make a sound,
Splinters hit the ground,
Silence screams so loud,
As see leaves.

As the torch light shines,
Through the heavy skies,
Autumn waves her hand,
Stright at me.

See her world fall down,
As the trees turn brown,
As she drifts away,
and leaves.

(chorus - next bit isn't right, but it works until I can figure it out)

As the lights go down... She won't leave this town with me...
D||---------2---------------------0-----------------------------------|
D||---------2---------------------0-----------------------------------|
G||-------0---------------------0-------------------------------------|
D||-----0---------------------0---------------------------------------|
D||---0---------------------0-----------------------------------------|
E||-0---------------------0-------------------------------------------|

(play next bar once before singing)

e||---7---5---4---------4---2---0---h12---0---2---0---h12---0---2---4-|
B||---7---5---3---h15---3---2---0---------0---2---0---------0---2---3-|
G||-------------------------------------------------------------------| x 5
D||-------------------------------------------------------------------|
A||-5-----------------------------0-----------------------------------|
E||-------------------------------------------------------------------|

There's more endless days,
Heaven slips away,
And I still see her face,
In broken dreams.

Words are left too late,
In out last embrace, 
Pushed until she breaks,
Just like me.

(chorus)

Things I'd wish she'd say,
Just to hear something,
Left alone to a fate,
that we don't yet see.

Then the moment fades,
The sun turns to slate,
Nothing stays the same,
She will leave.

(chorus x 3)



Please notify me of mistakes as and when you see them.    

Added On December 16th, 2013

SHARE

Comments

blog comments powered by Disqus

ADVERTISEMENT